0
SECTION
2
HEADER
9
$ACADVER
1
AC1012
9
$EXTMIN
10
-8.480000
20
28.460000
30
0.0
9
$EXTMAX
10
-2.260000
20
38.020000
30
0.0
9
$LIMMIN
10
-215.392000
20
722.884000
9
$LIMMAX
10
-57.404000
20
965.708000
9
$DIMSCALE
40
1.000000
9
$PDMODE
70
2
9
$PDSIZE
40
0.0
  9
$HANDSEED
  5
b43
0
ENDSEC
0
SECTION
2
CLASSES
0
ENDSEC
0
SECTION
2
TABLES
0
TABLE
2
LTYPE
5
1e
100
AcDbSymbolTable
70
12
0
LTYPE
5
1f
100
AcDbSymbolTableRecord
100
AcDbLinetypeTableRecord
2
BYBLOCK
70
0
3

72
65
73
0
40
0.0
0
LTYPE
5
20
100
AcDbSymbolTableRecord
100
AcDbLinetypeTableRecord
2
BYLAYER
70
0
3

72
65
73
0
40
0.0
0
LTYPE
5
21
100
AcDbSymbolTableRecord
100
AcDbLinetypeTableRecord
2
CONTINUOUS
70
64
3
Solid line
72
65
73
0
40
0.0
0
LTYPE
5
22
100
AcDbSymbolTableRecord
100
AcDbLinetypeTableRecord
2
DASHED
70
64
3
__ __ __ __ __ __ __ __ __ __ __ __ __ __ __
72
65
73
2
40
0.75
49
0.5
74
0
49
-0.25
74
0
0
LTYPE
5
23
100
AcDbSymbolTableRecord
100
AcDbLinetypeTableRecord
2
DOT
70
64
3
...............................................
72
65
73
2
40
0.25
49
0.0
74
0
49
-0.25
74
0
0
LTYPE
5
24
100
AcDbSymbolTableRecord
100
AcDbLinetypeTableRecord
2
DASHDOT
70
64
3
__ . __ . __ . __ . __ . __ . __ . __ . __ . --
72
65
73
4
40
1.0
49
0.5
74
0
49
-0.25
74
0
49
0.0
74
0
49
-0.25
74
0
0
LTYPE
5
25
100
AcDbSymbolTableRecord
100
AcDbLinetypeTableRecord
2
CENTER
70
64
3
____ _ ____ _ ____ _ ____ _ ____ _ ____ _ ____
72
65
73
4
40
2.0
49
1.25
74
0
49
-0.25
74
0
49
0.25
74
0
49
-0.25
74
0
0
LTYPE
5
26
100
AcDbSymbolTableRecord
100
AcDbLinetypeTableRecord
2
PHANTOM
70
64
3
_____ _ _ _____ _ _ _____ _ _ _____ _ _ ____
72
65
73
6
40
2.5
49
1.25
74
0
49
-0.25
74
0
49
0.25
74
0
49
-0.25
74
0
49
0.25
74
0
49
-0.25
74
0
0
LTYPE
5
27
100
AcDbSymbolTableRecord
100
AcDbLinetypeTableRecord
2
HIDDEN
70
64
3
_ _ _ _ _ _ _ _ _ _ _ _ _ _ _ _ _ _ _ _ _ _ _
72
65
73
2
40
0.375
49
0.25
74
0
49
-0.125
74
0
0
LTYPE
5
28
100
AcDbSymbolTableRecord
100
AcDbLinetypeTableRecord
2
BORDER
70
64
3
__ __ . __ __ . __ __ . __ __ . __ __ . __ __
72
65
73
6
40
1.75
49
0.5
74
0
49
-0.25
74
0
49
0.5
74
0
49
-0.25
74
0
49
0.0
74
0
49
-0.25
74
0
0
LTYPE
5
29
100
AcDbSymbolTableRecord
100
AcDbLinetypeTableRecord
2
DIVIDE
70
64
3
__ . . __ . . __ . . __ . . __ . . __ . . __
72
65
73
6
40
1.25
49
0.5
74
0
49
-0.25
74
0
49
0.0
74
0
49
-0.25
74
0
49
0.0
74
0
49
-0.25
74
0
0
LTYPE
5
2a
100
AcDbSymbolTableRecord
100
AcDbLinetypeTableRecord
2
DOT2
70
64
3
...............................................
72
65
73
2
40
0.125
49
0.0
74
0
49
-0.125
74
0
0
ENDTAB
0
TABLE
2
STYLE
5
2b
100
AcDbSymbolTable
70
1
0
STYLE
5
2c
100
AcDbSymbolTableRecord
100
AcDbTextStyleTableRecord
2
STANDARD
70
64
40
0.0
41
1.0
50
0.0
71
0
42
5.0
3
txt
4
bigfont
0
ENDTAB
0
TABLE
2
LAYER
5
2d
100
AcDbSymbolTable
70
1
0
LAYER
5
2e
100
AcDbSymbolTableRecord
100
AcDbLayerTableRecord
2
0
70
0
62
7
6
CONTINUOUS
0
ENDTAB
0
TABLE
2
APPID
5
2f
100
AcDbSymbolTable
70
1
0
APPID
5
30
100
AcDbSymbolTableRecord
100
AcDbRegAppTableRecord
2
ACAD
70
64
0
ENDTAB
0
TABLE
2
DIMSTYLE
5
31
100
AcDbSymbolTable
70
0
0
ENDTAB
0
TABLE
2
UCS
5
32
100
AcDbSymbolTable
70
0
0
ENDTAB
0
TABLE
2
VIEW
5
33
100
AcDbSymbolTable
70
0
0
ENDTAB
0
TABLE
2
VPORT
5
34
100
AcDbSymbolTable
70
0
0
ENDTAB
0
TABLE
2
BLOCK_RECORD
5
35
100
AcDbSymbolTable
70
0
0
BLOCK_RECORD
5
36
100
AcDbSymbolTableRecord
100
AcDbBlockTableRecord
2
*MODEL_SPACE
0
BLOCK_RECORD
5
37
100
AcDbSymbolTableRecord
100
AcDbBlockTableRecord
2
*PAPER_SPACE
0
BLOCK_RECORD
5
38
100
AcDbSymbolTableRecord
100
AcDbBlockTableRecord
2
OPEN
0
BLOCK_RECORD
5
39
100
AcDbSymbolTableRecord
100
AcDbBlockTableRecord
2
HALF
0
BLOCK_RECORD
5
3a
100
AcDbSymbolTableRecord
100
AcDbBlockTableRecord
2
CLOSEDBLANK
0
BLOCK_RECORD
5
3b
100
AcDbSymbolTableRecord
100
AcDbBlockTableRecord
2
HALFCLOSE_R
0
BLOCK_RECORD
5
3c
100
AcDbSymbolTableRecord
100
AcDbBlockTableRecord
2
DOT
0
BLOCK_RECORD
5
3d
100
AcDbSymbolTableRecord
100
AcDbBlockTableRecord
2
HALFOPEN_R
0
BLOCK_RECORD
5
3e
100
AcDbSymbolTableRecord
100
AcDbBlockTableRecord
2
CLOSEDF
0
BLOCK_RECORD
5
3f
100
AcDbSymbolTableRecord
100
AcDbBlockTableRecord
2
HALF_R
0
ENDTAB
0
ENDSEC
0
SECTION
2
BLOCKS
0
BLOCK
5
40
100
AcDbEntity
8
0
100
AcDbBlockBegin
2
*MODEL_SPACE
70
0
10
0.0
20
0.0
30
0.0
3
*MODEL_SPACE
1

0
ENDBLK
5
41
100
AcDbEntity
8
0
100
AcDbBlockEnd
0
BLOCK
5
42
100
AcDbEntity
67
1
8
0
100
AcDbBlockBegin
2
*PAPER_SPACE
70
0
10
0.0
20
0.0
30
0.0
3
*PAPER_SPACE
1

0
ENDBLK
5
43
100
AcDbEntity
67
1
8
0
100
AcDbBlockEnd
0
BLOCK
5
44
100
AcDbEntity
8
0
100
AcDbBlockBegin
2
OPEN
70
0
10
0.0
20
0.0
30
0.0
3
OPEN
1

0
LINE
5
45
100
AcDbEntity
8
0
6
BYBLOCK
62
0
100
AcDbLine
10
0.000000
20
0.000000
11
-1.000000
21
0.000000
0
LINE
5
46
100
AcDbEntity
8
0
6
BYBLOCK
62
0
100
AcDbLine
10
-1.000000
20
-0.166667
11
0.000000
21
0.000000
0
LINE
5
47
100
AcDbEntity
8
0
6
BYBLOCK
62
0
100
AcDbLine
10
-1.000000
20
0.166667
11
0.000000
21
0.000000
0
ENDBLK
5
48
100
AcDbEntity
8
0
100
AcDbBlockEnd
0
BLOCK
5
49
100
AcDbEntity
8
0
100
AcDbBlockBegin
2
HALF
70
0
10
0.0
20
0.0
30
0.0
3
HALF
1

0
SOLID
5
4a
100
AcDbEntity
8
0
6
BYBLOCK
62
0
100
AcDbTrace
10
-1.000000
20
0.166667
11
-1.000000
21
-0.166667
12
0.000000
22
0.000000
13
0.000000
23
0.000000
0
ENDBLK
5
4b
100
AcDbEntity
8
0
100
AcDbBlockEnd
0
BLOCK
5
4c
100
AcDbEntity
8
0
100
AcDbBlockBegin
2
CLOSEDBLANK
70
0
10
0.0
20
0.0
30
0.0
3
CLOSEDBLANK
1

0
LINE
5
4d
100
AcDbEntity
8
0
6
BYBLOCK
62
0
100
AcDbLine
10
-1.000000
20
0.166667
11
-1.000000
21
-0.166667
0
LINE
5
4e
100
AcDbEntity
8
0
6
BYBLOCK
62
0
100
AcDbLine
10
0.000000
20
0.000000
11
-1.000000
21
-0.166667
0
LINE
5
4f
100
AcDbEntity
8
0
6
BYBLOCK
62
0
100
AcDbLine
10
-1.000000
20
0.166667
11
0.000000
21
0.000000
0
ENDBLK
5
50
100
AcDbEntity
8
0
100
AcDbBlockEnd
0
BLOCK
5
51
100
AcDbEntity
8
0
100
AcDbBlockBegin
2
HALFCLOSE_R
70
0
10
0.0
20
0.0
30
0.0
3
HALFCLOSE_R
1

0
LINE
5
52
100
AcDbEntity
8
0
6
BYBLOCK
62
0
100
AcDbLine
10
-1.000000
20
-0.166667
11
-1.000000
21
0.000000
0
LINE
5
53
100
AcDbEntity
8
0
6
BYBLOCK
62
0
100
AcDbLine
10
-1.000000
20
-0.166667
11
0.000000
21
0.000000
0
LINE
5
54
100
AcDbEntity
8
0
6
BYBLOCK
62
0
100
AcDbLine
10
0.000000
20
0.000000
11
-1.000000
21
0.000000
0
ENDBLK
5
55
100
AcDbEntity
8
0
100
AcDbBlockEnd
0
BLOCK
5
56
100
AcDbEntity
8
0
100
AcDbBlockBegin
2
DOT
70
0
10
0.0
20
0.0
30
0.0
3
DOT
1

0
LINE
5
57
100
AcDbEntity
8
0
6
BYBLOCK
62
0
100
AcDbLine
10
0.000000
20
0.000000
11
-1.000000
21
0.000000
0
POLYLINE
5
58
100
AcDbEntity
8
0
6
BYBLOCK
62
0
100
AcDb2dPolyline
66
1
10
0.0
20
0.0
30
0.0
70
1
40
0.166667
41
0.166667
0
VERTEX
5
59
100
AcDbEntity
8
0
100
AcDbVertex
100
AcDb2dVertex
62
12
10
-0.083333
20
0.000000
42
1.000000
0
VERTEX
5
5a
100
AcDbEntity
8
0
100
AcDbVertex
100
AcDb2dVertex
62
12
10
0.083333
20
0.000000
42
1.000000
0
SEQEND
5
5b
100
AcDbEntity
8
0
0
ENDBLK
5
5c
100
AcDbEntity
8
0
100
AcDbBlockEnd
0
BLOCK
5
5d
100
AcDbEntity
8
0
100
AcDbBlockBegin
2
HALFOPEN_R
70
0
10
0.0
20
0.0
30
0.0
3
HALFOPEN_R
1

0
LINE
5
5e
100
AcDbEntity
8
0
6
BYBLOCK
62
0
100
AcDbLine
10
-1.000000
20
-0.166667
11
0.000000
21
0.000000
0
LINE
5
5f
100
AcDbEntity
8
0
6
BYBLOCK
62
0
100
AcDbLine
10
0.000000
20
0.000000
11
-1.000000
21
0.000000
0
ENDBLK
5
60
100
AcDbEntity
8
0
100
AcDbBlockEnd
0
BLOCK
5
61
100
AcDbEntity
8
0
100
AcDbBlockBegin
2
CLOSEDF
70
0
10
0.0
20
0.0
30
0.0
3
CLOSEDF
1

0
SOLID
5
62
100
AcDbEntity
8
0
6
BYBLOCK
62
0
100
AcDbTrace
10
-1.000000
20
0.166667
11
-1.000000
21
-0.166667
12
0.000000
22
0.000000
13
0.000000
23
0.000000
0
ENDBLK
5
63
100
AcDbEntity
8
0
100
AcDbBlockEnd
0
BLOCK
5
64
100
AcDbEntity
8
0
100
AcDbBlockBegin
2
HALF_R
70
0
10
0.0
20
0.0
30
0.0
3
HALF_R
1

0
SOLID
5
65
100
AcDbEntity
8
0
6
BYBLOCK
62
0
100
AcDbTrace
10
-1.000000
20
-0.166667
11
-1.000000
21
0.000000
12
0.000000
22
0.000000
13
0.000000
23
0.000000
0
ENDBLK
5
66
100
AcDbEntity
8
0
100
AcDbBlockEnd
0
ENDSEC
0
SECTION
2
ENTITIES
0
LINE
5
67
100
AcDbEntity
8
1
100
AcDbLine
6
CONTINUOUS
62
5
10
-94.810032
20
925.058335
11
-95.404002
21
924.464365
0
LINE
5
68
100
AcDbEntity
8
1
100
AcDbLine
6
CONTINUOUS
62
5
10
-95.404002
20
925.058335
11
-94.810032
21
924.464365
0
CIRCLE
5
69
100
AcDbEntity
8
1
100
AcDbCircle
6
CONTINUOUS
62
5
10
-95.107017
20
924.761350
40
0.940000
0
LINE
5
6a
100
AcDbEntity
8
1
100
AcDbLine
6
CONTINUOUS
62
5
10
-95.404002
20
908.258335
11
-94.810032
21
907.664365
0
LINE
5
6b
100
AcDbEntity
8
1
100
AcDbLine
6
CONTINUOUS
62
5
10
-94.810032
20
908.258335
11
-95.404002
21
907.664365
0
CIRCLE
5
6c
100
AcDbEntity
8
1
100
AcDbCircle
6
CONTINUOUS
62
5
10
-95.107017
20
907.961350
40
0.940000
0
LINE
5
6d
100
AcDbEntity
8
1
100
AcDbLine
6
CONTINUOUS
62
5
10
-112.010032
20
925.058335
11
-112.604002
21
924.464365
0
LINE
5
6e
100
AcDbEntity
8
1
100
AcDbLine
6
CONTINUOUS
62
5
10
-112.604002
20
925.058335
11
-112.010032
21
924.464365
0
POLYLINE
5
6f
100
AcDbEntity
8
1
6
CONTINUOUS
62
5
100
AcDb2dPolyline
66
1
10
0.0
20
0.0
30
0.0
70
1
0
VERTEX
5
70
100
AcDbEntity
8
1
100
AcDbVertex
100
AcDb2dVertex
62
5
10
-112.307017
20
924.761350
0
VERTEX
5
71
100
AcDbEntity
8
1
100
AcDbVertex
100
AcDb2dVertex
62
5
10
-112.307017
20
924.761350
0
VERTEX
5
72
100
AcDbEntity
8
1
100
AcDbVertex
100
AcDb2dVertex
62
5
10
-112.307017
20
924.761350
0
SEQEND
5
73
100
AcDbEntity
8
1
0
CIRCLE
5
74
100
AcDbEntity
8
1
100
AcDbCircle
6
CONTINUOUS
62
5
10
-112.307017
20
924.761350
40
0.940000
0
LINE
5
75
100
AcDbEntity
8
0
100
AcDbLine
6
CONTINUOUS
62
5
10
-116.307017
20
926.621350
11
-116.307017
21
930.101350
0
CIRCLE
5
76
100
AcDbEntity
8
1
100
AcDbCircle
6
CONTINUOUS
62
5
10
-112.307017
20
907.961350
40
0.940000
0
LINE
5
77
100
AcDbEntity
8
1
100
AcDbLine
6
CONTINUOUS
62
5
10
-112.604002
20
908.258335
11
-112.010032
21
907.664365
0
LINE
5
78
100
AcDbEntity
8
1
100
AcDbLine
6
CONTINUOUS
62
5
10
-112.010032
20
908.258335
11
-112.604002
21
907.664365
0
LINE
5
79
100
AcDbEntity
8
1
100
AcDbLine
6
CONTINUOUS
62
5
10
-116.234647
20
918.060568
11
-116.328513
21
918.089438
0
LINE
5
7a
100
AcDbEntity
8
1
100
AcDbLine
6
CONTINUOUS
62
5
10
-116.241337
20
917.962584
11
-116.234647
21
918.060568
0
LINE
5
7b
100
AcDbEntity
8
1
100
AcDbLine
6
CONTINUOUS
62
5
10
-116.328513
20
918.089425
11
-116.326963
21
918.187631
0
LINE
5
7c
100
AcDbEntity
8
1
100
AcDbLine
6
CONTINUOUS
62
5
10
-115.732685
20
916.752927
11
-115.803220
21
916.821264
0
LINE
5
7d
100
AcDbEntity
8
1
100
AcDbLine
6
CONTINUOUS
62
5
10
-115.783132
20
916.668662
11
-115.732687
21
916.752927
0
LINE
5
7e
100
AcDbEntity
8
1
100
AcDbLine
6
CONTINUOUS
62
5
10
-115.716269
20
916.596726
11
-115.783128
21
916.668662
0
LINE
5
7f
100
AcDbEntity
8
1
100
AcDbLine
6
CONTINUOUS
62
5
10
-115.789916
20
917.061680
11
-115.867203
21
917.122274
0
LINE
5
80
100
AcDbEntity
8
1
100
AcDbLine
6
CONTINUOUS
62
5
10
-115.803219
20
916.821262
11
-115.757262
21
916.908054
0
LINE
5
81
100
AcDbEntity
8
1
100
AcDbLine
6
CONTINUOUS
62
5
10
-115.831270
20
916.972606
11
-115.789914
21
917.061693
0
LINE
5
82
100
AcDbEntity
8
1
100
AcDbLine
6
CONTINUOUS
62
5
10
-115.757261
20
916.908053
11
-115.831271
21
916.972605
0
LINE
5
83
100
AcDbEntity
8
1
100
AcDbLine
6
CONTINUOUS
62
5
10
-115.831271
20
915.750095
11
-115.757255
21
915.814647
0
LINE
5
84
100
AcDbEntity
8
1
100
AcDbLine
6
CONTINUOUS
62
5
10
-115.708053
20
916.282821
11
-115.767028
21
916.361350
0
LINE
5
85
100
AcDbEntity
8
1
100
AcDbLine
6
CONTINUOUS
62
5
10
-116.307017
20
916.361350
11
-116.027016
21
916.361350
0
LINE
5
86
100
AcDbEntity
8
1
100
AcDbLine
6
CONTINUOUS
62
5
10
-115.771056
20
916.207482
11
-115.708047
21
916.282824
0
LINE
5
87
100
AcDbEntity
8
1
100
AcDbLine
6
CONTINUOUS
62
5
10
-115.757261
20
915.814647
11
-115.803219
21
915.901439
0
LINE
5
88
100
AcDbEntity
8
1
100
AcDbLine
6
CONTINUOUS
62
5
10
-115.803220
20
915.901438
11
-115.732688
21
915.969773
0
LINE
5
89
100
AcDbEntity
8
1
100
AcDbLine
6
CONTINUOUS
62
5
10
-115.732687
20
915.969773
11
-115.783128
21
916.054038
0
LINE
5
8a
100
AcDbEntity
8
1
100
AcDbLine
6
CONTINUOUS
62
5
10
-115.783128
20
916.054038
11
-115.716270
21
916.125974
0
LINE
5
8b
100
AcDbEntity
8
1
100
AcDbLine
6
CONTINUOUS
62
5
10
-115.716269
20
916.125975
11
-115.771053
21
916.207479
0
LINE
5
8c
100
AcDbEntity
8
1
100
AcDbLine
6
CONTINUOUS
62
5
10
-115.771055
20
916.515220
11
-115.716269
21
916.596726
0
LINE
5
8d
100
AcDbEntity
8
1
100
AcDbLine
6
CONTINUOUS
62
5
10
-115.708053
20
916.439879
11
-115.771055
21
916.515220
0
LINE
5
8e
100
AcDbEntity
8
1
100
AcDbLine
6
CONTINUOUS
62
5
10
-115.767027
20
916.361351
11
-115.708047
21
916.439879
0
LINE
5
8f
100
AcDbEntity
8
1
100
AcDbLine
6
CONTINUOUS
62
1
10
-116.019517
20
907.033850
11
-116.082017
21
906.971350
0
POLYLINE
5
90
100
AcDbEntity
8
1
6
CONTINUOUS
62
1
100
AcDb2dPolyline
66
1
10
0.0
20
0.0
30
0.0
70
0
0
VERTEX
5
91
100
AcDbEntity
8
1
100
AcDbVertex
100
AcDb2dVertex
62
1
10
-116.082017
20
907.033850
0
VERTEX
5
92
100
AcDbEntity
8
1
100
AcDbVertex
100
AcDb2dVertex
62
1
10
-116.019517
20
906.971350
0
VERTEX
5
93
100
AcDbEntity
8
1
100
AcDbVertex
100
AcDb2dVertex
62
1
10
-116.082017
20
906.971350
0
VERTEX
5
94
100
AcDbEntity
8
1
100
AcDbVertex
100
AcDb2dVertex
62
1
10
-116.082017
20
907.033850
0
VERTEX
5
95
100
AcDbEntity
8
1
100
AcDbVertex
100
AcDb2dVertex
62
1
10
-116.019517
20
907.033850
0
VERTEX
5
96
100
AcDbEntity
8
1
100
AcDbVertex
100
AcDb2dVertex
62
1
10
-116.019517
20
906.971350
0
SEQEND
5
97
100
AcDbEntity
8
1
0
LINE
5
98
100
AcDbEntity
8
1
100
AcDbLine
6
CONTINUOUS
62
5
10
-116.241331
20
914.760117
11
-116.149102
21
914.793857
0
LINE
5
99
100
AcDbEntity
8
1
100
AcDbLine
6
CONTINUOUS
62
5
10
-116.149101
20
914.793857
11
-116.160905
21
914.891353
0
LINE
5
9a
100
AcDbEntity
8
1
100
AcDbLine
6
CONTINUOUS
62
5
10
-116.234641
20
914.662131
11
-116.241331
21
914.760119
0
LINE
5
9b
100
AcDbEntity
8
1
100
AcDbLine
6
CONTINUOUS
62
5
10
-116.328512
20
914.633260
11
-116.234640
21
914.662130
0
LINE
5
9c
100
AcDbEntity
8
1
100
AcDbLine
6
CONTINUOUS
62
5
10
-116.326962
20
914.535068
11
-116.328512
21
914.633262
0
LINE
5
9d
100
AcDbEntity
8
1
100
AcDbLine
6
CONTINUOUS
62
5
10
-115.867203
20
915.600425
11
-115.789916
21
915.661020
0
LINE
5
9e
100
AcDbEntity
8
1
100
AcDbLine
6
CONTINUOUS
62
5
10
-115.830561
20
915.509311
11
-115.867195
21
915.600425
0
LINE
5
9f
100
AcDbEntity
8
1
100
AcDbLine
6
CONTINUOUS
62
5
10
-115.910918
20
915.452842
11
-115.830563
21
915.509299
0
LINE
5
a0
100
AcDbEntity
8
1
100
AcDbLine
6
CONTINUOUS
62
5
10
-115.789915
20
915.661022
11
-115.831271
21
915.750095
0
LINE
5
a1
100
AcDbEntity
8
1
100
AcDbLine
6
CONTINUOUS
62
5
10
-115.879098
20
915.359935
11
-115.910916
21
915.452842
0
LINE
5
a2
100
AcDbEntity
8
1
100
AcDbLine
6
CONTINUOUS
62
5
10
-115.962295
20
915.307749
11
-115.879098
21
915.359934
0
LINE
5
a3
100
AcDbEntity
8
1
100
AcDbLine
6
CONTINUOUS
62
5
10
-116.160911
20
914.891355
11
-116.070567
21
914.929880
0
LINE
5
a4
100
AcDbEntity
8
1
100
AcDbLine
6
CONTINUOUS
62
5
10
-116.087460
20
915.026619
11
-115.999264
21
915.069820
0
LINE
5
a5
100
AcDbEntity
8
1
100
AcDbLine
6
CONTINUOUS
62
5
10
-116.070567
20
914.929880
11
-116.087461
21
915.026621
0
LINE
5
a6
100
AcDbEntity
8
1
100
AcDbLine
6
CONTINUOUS
62
5
10
-116.021202
20
915.165549
11
-115.935379
21
915.213305
0
LINE
5
a7
100
AcDbEntity
8
1
100
AcDbLine
6
CONTINUOUS
62
5
10
-115.999264
20
915.069820
11
-116.021200
21
915.165548
0
LINE
5
a8
100
AcDbEntity
8
1
100
AcDbLine
6
CONTINUOUS
62
5
10
-115.935385
20
915.213303
11
-115.962296
21
915.307750
0
LINE
5
a9
100
AcDbEntity
8
1
100
AcDbLine
6
CONTINUOUS
62
5
10
-116.087466
20
917.696080
11
-116.070573
21
917.792818
0
LINE
5
aa
100
AcDbEntity
8
1
100
AcDbLine
6
CONTINUOUS
62
5
10
-115.999271
20
917.652879
11
-116.087466
21
917.696079
0
LINE
5
ab
100
AcDbEntity
8
1
100
AcDbLine
6
CONTINUOUS
62
5
10
-116.149107
20
917.928840
11
-116.241332
21
917.962581
0
LINE
5
ac
100
AcDbEntity
8
1
100
AcDbLine
6
CONTINUOUS
62
5
10
-116.070573
20
917.792820
11
-116.160911
21
917.831347
0
LINE
5
ad
100
AcDbEntity
8
1
100
AcDbLine
6
CONTINUOUS
62
5
10
-116.160911
20
917.831344
11
-116.149107
21
917.928843
0
LINE
5
ae
100
AcDbEntity
8
1
100
AcDbLine
6
CONTINUOUS
62
5
10
-115.867203
20
917.122275
11
-115.830563
21
917.213401
0
LINE
5
af
100
AcDbEntity
8
1
100
AcDbLine
6
CONTINUOUS
62
5
10
-115.910922
20
917.269858
11
-115.879098
21
917.362766
0
LINE
5
b0
100
AcDbEntity
8
1
100
AcDbLine
6
CONTINUOUS
62
5
10
-115.879098
20
917.362766
11
-115.962302
21
917.414951
0
LINE
5
b1
100
AcDbEntity
8
1
100
AcDbLine
6
CONTINUOUS
62
5
10
-115.830563
20
917.213390
11
-115.910922
21
917.269857
0
LINE
5
b2
100
AcDbEntity
8
1
100
AcDbLine
6
CONTINUOUS
62
5
10
-115.962302
20
917.414951
11
-115.935384
21
917.509398
0
LINE
5
b3
100
AcDbEntity
8
1
100
AcDbLine
6
CONTINUOUS
62
5
10
-115.935384
20
917.509397
11
-116.021201
21
917.557151
0
LINE
5
b4
100
AcDbEntity
8
1
100
AcDbLine
6
CONTINUOUS
62
5
10
-116.021200
20
917.557152
11
-115.999264
21
917.652880
0
POLYLINE
5
b5
100
AcDbEntity
8
1
6
CONTINUOUS
62
1
100
AcDb2dPolyline
66
1
10
0.0
20
0.0
30
0.0
70
0
0
VERTEX
5
b6
100
AcDbEntity
8
1
100
AcDbVertex
100
AcDb2dVertex
62
1
10
-115.082017
20
907.721350
0
VERTEX
5
b7
100
AcDbEntity
8
1
100
AcDbVertex
100
AcDb2dVertex
62
1
10
-115.082017
20
907.127600
0
VERTEX
5
b8
100
AcDbEntity
8
1
100
AcDbVertex
100
AcDb2dVertex
62
1
10
-115.050767
20
907.033850
0
VERTEX
5
b9
100
AcDbEntity
8
1
100
AcDbVertex
100
AcDb2dVertex
62
1
10
-115.019517
20
907.002600
0
VERTEX
5
ba
100
AcDbEntity
8
1
100
AcDbVertex
100
AcDb2dVertex
62
1
10
-114.957017
20
906.971350
0
VERTEX
5
bb
100
AcDbEntity
8
1
100
AcDbVertex
100
AcDb2dVertex
62
1
10
-114.894517
20
906.971350
0
VERTEX
5
bc
100
AcDbEntity
8
1
100
AcDbVertex
100
AcDb2dVertex
62
1
10
-114.832017
20
907.002600
0
VERTEX
5
bd
100
AcDbEntity
8
1
100
AcDbVertex
100
AcDb2dVertex
62
1
10
-114.800767
20
907.033850
0
VERTEX
5
be
100
AcDbEntity
8
1
100
AcDbVertex
100
AcDb2dVertex
62
1
10
-114.769517
20
907.127600
0
VERTEX
5
bf
100
AcDbEntity
8
1
100
AcDbVertex
100
AcDb2dVertex
62
1
10
-114.769517
20
907.721350
0
SEQEND
5
c0
100
AcDbEntity
8
1
0
POLYLINE
5
c1
100
AcDbEntity
8
1
6
CONTINUOUS
62
1
100
AcDb2dPolyline
66
1
10
0.0
20
0.0
30
0.0
70
0
0
VERTEX
5
c2
100
AcDbEntity
8
1
100
AcDbVertex
100
AcDb2dVertex
62
1
10
-114.582017
20
906.971350
0
VERTEX
5
c3
100
AcDbEntity
8
1
100
AcDbVertex
100
AcDb2dVertex
62
1
10
-114.582017
20
907.721350
0
VERTEX
5
c4
100
AcDbEntity
8
1
100
AcDbVertex
100
AcDb2dVertex
62
1
10
-114.269517
20
906.971350
0
VERTEX
5
c5
100
AcDbEntity
8
1
100
AcDbVertex
100
AcDb2dVertex
62
1
10
-114.269517
20
907.721350
0
SEQEND
5
c6
100
AcDbEntity
8
1
0
LINE
5
c7
100
AcDbEntity
8
1
100
AcDbLine
6
CONTINUOUS
62
1
10
-115.582017
20
907.721350
11
-115.582017
21
906.971350
0
POLYLINE
5
c8
100
AcDbEntity
8
1
6
CONTINUOUS
62
1
100
AcDb2dPolyline
66
1
10
0.0
20
0.0
30
0.0
70
0
0
VERTEX
5
c9
100
AcDbEntity
8
1
100
AcDbVertex
100
AcDb2dVertex
62
1
10
-115.582017
20
907.721350
0
VERTEX
5
ca
100
AcDbEntity
8
1
100
AcDbVertex
100
AcDb2dVertex
62
1
10
-115.457017
20
907.721350
0
VERTEX
5
cb
100
AcDbEntity
8
1
100
AcDbVertex
100
AcDb2dVertex
62
1
10
-115.363267
20
907.690100
0
VERTEX
5
cc
100
AcDbEntity
8
1
100
AcDbVertex
100
AcDb2dVertex
62
1
10
-115.332017
20
907.658850
0
VERTEX
5
cd
100
AcDbEntity
8
1
100
AcDbVertex
100
AcDb2dVertex
62
1
10
-115.300767
20
907.565100
0
VERTEX
5
ce
100
AcDbEntity
8
1
100
AcDbVertex
100
AcDb2dVertex
62
1
10
-115.300767
20
907.471350
0
VERTEX
5
cf
100
AcDbEntity
8
1
100
AcDbVertex
100
AcDb2dVertex
62
1
10
-115.332017
20
907.408850
0
VERTEX
5
d0
100
AcDbEntity
8
1
100
AcDbVertex
100
AcDb2dVertex
62
1
10
-115.425767
20
907.346350
0
VERTEX
5
d1
100
AcDbEntity
8
1
100
AcDbVertex
100
AcDb2dVertex
62
1
10
-115.582017
20
907.346350
0
SEQEND
5
d2
100
AcDbEntity
8
1
0
POLYLINE
5
d3
100
AcDbEntity
8
1
6
CONTINUOUS
62
1
100
AcDb2dPolyline
66
1
10
0.0
20
0.0
30
0.0
70
0
0
VERTEX
5
d4
100
AcDbEntity
8
1
100
AcDbVertex
100
AcDb2dVertex
62
1
10
-115.425767
20
907.346350
0
VERTEX
5
d5
100
AcDbEntity
8
1
100
AcDbVertex
100
AcDb2dVertex
62
1
10
-115.363267
20
907.315100
0
VERTEX
5
d6
100
AcDbEntity
8
1
100
AcDbVertex
100
AcDb2dVertex
62
1
10
-115.332017
20
907.252600
0
VERTEX
5
d7
100
AcDbEntity
8
1
100
AcDbVertex
100
AcDb2dVertex
62
1
10
-115.332017
20
907.033850
0
VERTEX
5
d8
100
AcDbEntity
8
1
100
AcDbVertex
100
AcDb2dVertex
62
1
10
-115.300767
20
906.971350
0
VERTEX
5
d9
100
AcDbEntity
8
1
100
AcDbVertex
100
AcDb2dVertex
62
1
10
-115.269517
20
906.971350
0
VERTEX
5
da
100
AcDbEntity
8
1
100
AcDbVertex
100
AcDb2dVertex
62
1
10
-115.238267
20
907.033850
0
SEQEND
5
db
100
AcDbEntity
8
1
0
LINE
5
dc
100
AcDbEntity
8
1
100
AcDbLine
6
HIDDEN
62
5
10
-104.947017
20
920.261350
11
-102.467017
21
920.261350
0
LINE
5
dd
100
AcDbEntity
8
1
100
AcDbLine
6
HIDDEN
62
5
10
-104.947017
20
920.261350
11
-102.467017
21
920.261350
0
LINE
5
de
100
AcDbEntity
8
1
100
AcDbLine
6
CONTINUOUS
62
5
10
-104.947017
20
920.376820
11
-102.467017
21
920.376820
0
LINE
5
df
100
AcDbEntity
8
1
100
AcDbLine
6
CONTINUOUS
62
5
10
-104.947017
20
920.376820
11
-102.467017
21
920.376820
0
POLYLINE
5
e0
100
AcDbEntity
8
1
6
CONTINUOUS
62
5
100
AcDb2dPolyline
66
1
10
0.0
20
0.0
30
0.0
70
1
0
VERTEX
5
e1
100
AcDbEntity
8
1
100
AcDbVertex
100
AcDb2dVertex
62
5
10
-104.947017
20
919.106649
0
VERTEX
5
e2
100
AcDbEntity
8
1
100
AcDbVertex
100
AcDb2dVertex
62
5
10
-104.947017
20
921.242845
0
VERTEX
5
e3
100
AcDbEntity
8
1
100
AcDbVertex
100
AcDb2dVertex
62
5
10
-102.467017
20
921.242845
0
VERTEX
5
e4
100
AcDbEntity
8
1
100
AcDbVertex
100
AcDb2dVertex
62
5
10
-102.467017
20
919.106649
0
SEQEND
5
e5
100
AcDbEntity
8
1
0
POLYLINE
5
e6
100
AcDbEntity
8
1
6
CONTINUOUS
62
5
100
AcDb2dPolyline
66
1
10
0.0
20
0.0
30
0.0
70
1
0
VERTEX
5
e7
100
AcDbEntity
8
1
100
AcDbVertex
100
AcDb2dVertex
62
5
10
-104.947017
20
919.106649
0
VERTEX
5
e8
100
AcDbEntity
8
1
100
AcDbVertex
100
AcDb2dVertex
62
5
10
-104.947017
20
921.242845
0
VERTEX
5
e9
100
AcDbEntity
8
1
100
AcDbVertex
100
AcDb2dVertex
62
5
10
-102.467017
20
921.242845
0
VERTEX
5
ea
100
AcDbEntity
8
1
100
AcDbVertex
100
AcDb2dVertex
62
5
10
-102.467017
20
919.106649
0
SEQEND
5
eb
100
AcDbEntity
8
1
0
POLYLINE
5
ec
100
AcDbEntity
8
1
6
CONTINUOUS
62
5
100
AcDb2dPolyline
66
1
10
0.0
20
0.0
30
0.0
70
0
0
VERTEX
5
ed
100
AcDbEntity
8
1
100
AcDbVertex
100
AcDb2dVertex
62
5
10
-104.947017
20
920.261350
0
VERTEX
5
ee
100
AcDbEntity
8
1
100
AcDbVertex
100
AcDb2dVertex
62
5
10
-105.007017
20
920.261350
0
VERTEX
5
ef
100
AcDbEntity
8
1
100
AcDbVertex
100
AcDb2dVertex
62
5
10
-105.007017
20
916.261350
0
VERTEX
5
f0
100
AcDbEntity
8
1
100
AcDbVertex
100
AcDb2dVertex
62
5
10
-102.407017
20
916.261350
0
VERTEX
5
f1
100
AcDbEntity
8
1
100
AcDbVertex
100
AcDb2dVertex
62
5
10
-102.407017
20
920.261350
0
VERTEX
5
f2
100
AcDbEntity
8
1
100
AcDbVertex
100
AcDb2dVertex
62
5
10
-102.467017
20
920.261350
0
SEQEND
5
f3
100
AcDbEntity
8
1
0
POLYLINE
5
f4
100
AcDbEntity
8
1
6
CONTINUOUS
62
5
100
AcDb2dPolyline
66
1
10
0.0
20
0.0
30
0.0
70
0
0
VERTEX
5
f5
100
AcDbEntity
8
1
100
AcDbVertex
100
AcDb2dVertex
62
5
10
-104.947017
20
920.261350
0
VERTEX
5
f6
100
AcDbEntity
8
1
100
AcDbVertex
100
AcDb2dVertex
62
5
10
-105.007017
20
920.261350
0
VERTEX
5
f7
100
AcDbEntity
8
1
100
AcDbVertex
100
AcDb2dVertex
62
5
10
-105.007017
20
916.261350
0
VERTEX
5
f8
100
AcDbEntity
8
1
100
AcDbVertex
100
AcDb2dVertex
62
5
10
-102.407017
20
916.261350
0
VERTEX
5
f9
100
AcDbEntity
8
1
100
AcDbVertex
100
AcDb2dVertex
62
5
10
-102.407017
20
920.261350
0
VERTEX
5
fa
100
AcDbEntity
8
1
100
AcDbVertex
100
AcDb2dVertex
62
5
10
-102.467017
20
920.261350
0
SEQEND
5
fb
100
AcDbEntity
8
1
0
POLYLINE
5
fc
100
AcDbEntity
8
1
6
CONTINUOUS
62
5
100
AcDb2dPolyline
66
1
10
0.0
20
0.0
30
0.0
70
1
0
VERTEX
5
fd
100
AcDbEntity
8
1
100
AcDbVertex
100
AcDb2dVertex
62
5
10
-105.907017
20
911.361350
0
VERTEX
5
fe
100
AcDbEntity
8
1
100
AcDbVertex
100
AcDb2dVertex
62
5
10
-105.907017
20
921.361350
0
VERTEX
5
ff
100
AcDbEntity
8
1
100
AcDbVertex
100
AcDb2dVertex
62
5
10
-101.507017
20
921.361350
0
VERTEX
5
100
100
AcDbEntity
8
1
100
AcDbVertex
100
AcDb2dVertex
62
5
10
-101.507017
20
911.361350
0
SEQEND
5
101
100
AcDbEntity
8
1
0
POLYLINE
5
102
100
AcDbEntity
8
1
6
CONTINUOUS
62
5
100
AcDb2dPolyline
66
1
10
0.0
20
0.0
30
0.0
70
1
0
VERTEX
5
103
100
AcDbEntity
8
1
100
AcDbVertex
100
AcDb2dVertex
62
5
10
-105.907017
20
911.361350
0
VERTEX
5
104
100
AcDbEntity
8
1
100
AcDbVertex
100
AcDb2dVertex
62
5
10
-105.907017
20
921.361350
0
VERTEX
5
105
100
AcDbEntity
8
1
100
AcDbVertex
100
AcDb2dVertex
62
5
10
-101.507017
20
921.361350
0
VERTEX
5
106
100
AcDbEntity
8
1
100
AcDbVertex
100
AcDb2dVertex
62
5
10
-101.507017
20
911.361350
0
SEQEND
5
107
100
AcDbEntity
8
1
0
LINE
5
108
100
AcDbEntity
8
0
100
AcDbLine
6
CONTINUOUS
62
5
10
-119.507016
20
929.871350
11
-119.507016
21
929.931350
0
LINE
5
109
100
AcDbEntity
8
0
100
AcDbLine
6
CONTINUOUS
62
5
10
-117.907017
20
929.871350
11
-117.907017
21
929.931350
0
ARC
5
10a
100
AcDbEntity
8
0
100
AcDbCircle
6
CONTINUOUS
62
5
10
-120.727056
20
929.791351
40
0.080000
100
AcDbArc
50
89.999999
51
-179.999995
0
ARC
5
10b
100
AcDbEntity
8
0
100
AcDbCircle
6
CONTINUOUS
62
5
10
-120.597026
20
929.681350
40
0.250000
100
AcDbArc
50
49.465000
51
-147.153989
0
ARC
5
10c
100
AcDbEntity
8
0
100
AcDbCircle
6
CONTINUOUS
62
5
10
-121.047026
20
930.101350
40
0.060000
100
AcDbArc
50
89.999999
51
-179.999995
0
LINE
5
10d
100
AcDbEntity
8
0
100
AcDbLine
6
CONTINUOUS
62
5
10
-120.807067
20
928.761349
11
-120.847026
21
928.761349
0
LINE
5
10e
100
AcDbEntity
8
0
100
AcDbLine
6
CONTINUOUS
62
5
10
-119.507016
20
926.791349
11
-119.507016
21
926.851350
0
LINE
5
10f
100
AcDbEntity
8
0
100
AcDbLine
6
CONTINUOUS
62
5
10
-117.907017
20
926.791349
11
-117.907017
21
926.851350
0
ARC
5
110
100
AcDbEntity
8
0
100
AcDbCircle
6
CONTINUOUS
62
5
10
-120.727056
20
926.931350
40
0.080000
100
AcDbArc
50
-179.999995
51
-89.999989
0
ARC
5
111
100
AcDbEntity
8
0
100
AcDbCircle
6
CONTINUOUS
62
5
10
-120.597026
20
927.041349
40
0.250000
100
AcDbArc
50
147.154199
51
-49.462000
0
ARC
5
112
100
AcDbEntity
8
0
100
AcDbCircle
6
CONTINUOUS
62
5
10
-121.047026
20
926.621350
40
0.060000
100
AcDbArc
50
-179.999995
51
-89.999989
0
LINE
5
113
100
AcDbEntity
8
0
100
AcDbLine
6
CONTINUOUS
62
5
10
-120.807067
20
929.791351
11
-120.807067
21
926.931350
0
LINE
5
114
100
AcDbEntity
8
0
100
AcDbLine
6
CONTINUOUS
62
5
10
-120.807067
20
927.961349
11
-120.847026
21
927.961349
0
LINE
5
115
100
AcDbEntity
8
0
100
AcDbLine
6
CONTINUOUS
62
5
10
-121.107016
20
926.621350
11
-121.107016
21
930.101350
0
LINE
5
116
100
AcDbEntity
8
0
100
AcDbLine
6
CONTINUOUS
62
5
10
-120.847026
20
926.591349
11
-120.847026
21
930.131350
0
LINE
5
117
100
AcDbEntity
8
1
100
AcDbLine
6
CONTINUOUS
62
5
10
-119.907017
20
918.439804
11
-120.047019
21
918.682298
0
LINE
5
118
100
AcDbEntity
8
1
100
AcDbLine
6
CONTINUOUS
62
5
10
-119.250536
20
918.389791
11
-120.047018
21
918.682298
0
LINE
5
119
100
AcDbEntity
8
1
100
AcDbLine
6
CONTINUOUS
62
5
10
-118.241141
20
918.100008
11
-118.085848
21
918.679573
0
LINE
5
11a
100
AcDbEntity
8
1
100
AcDbLine
6
CONTINUOUS
62
5
10
-121.179378
20
918.060556
11
-121.172687
21
917.962570
0
LINE
5
11b
100
AcDbEntity
8
1
100
AcDbLine
6
CONTINUOUS
62
5
10
-120.674241
20
918.546175
11
-120.772066
21
918.537459
0
LINE
5
11c
100
AcDbEntity
8
1
100
AcDbLine
6
CONTINUOUS
62
5
10
-120.655355
20
918.642551
11
-120.674245
21
918.546177
0
LINE
5
11d
100
AcDbEntity
8
1
100
AcDbLine
6
CONTINUOUS
62
5
10
-120.557200
20
918.646139
11
-120.655352
21
918.642550
0
LINE
5
11e
100
AcDbEntity
8
1
100
AcDbLine
6
CONTINUOUS
62
5
10
-120.772068
20
918.537462
11
-120.785897
21
918.440231
0
LINE
5
11f
100
AcDbEntity
8
1
100
AcDbLine
6
CONTINUOUS
62
5
10
-120.785891
20
918.440221
11
-120.883126
21
918.426403
0
LINE
5
120
100
AcDbEntity
8
1
100
AcDbLine
6
CONTINUOUS
62
5
10
-120.883128
20
918.426400
11
-120.891843
21
918.328573
0
LINE
5
121
100
AcDbEntity
8
1
100
AcDbLine
6
CONTINUOUS
62
5
10
-120.891843
20
918.328573
11
-120.988222
21
918.309677
0
LINE
5
122
100
AcDbEntity
8
1
100
AcDbLine
6
CONTINUOUS
62
5
10
-121.085508
20
918.089428
11
-121.179378
21
918.060558
0
LINE
5
123
100
AcDbEntity
8
1
100
AcDbLine
6
CONTINUOUS
62
5
10
-121.087063
20
918.187619
11
-121.085508
21
918.089425
0
LINE
5
124
100
AcDbEntity
8
1
100
AcDbLine
6
CONTINUOUS
62
5
10
-120.988224
20
918.309676
11
-120.991807
21
918.211533
0
LINE
5
125
100
AcDbEntity
8
1
100
AcDbLine
6
CONTINUOUS
62
5
10
-120.991807
20
918.211534
11
-121.087063
21
918.187620
0
LINE
5
126
100
AcDbEntity
8
1
100
AcDbLine
6
CONTINUOUS
62
5
10
-117.653420
20
919.106060
11
-117.705601
21
919.189267
0
LINE
5
127
100
AcDbEntity
8
1
100
AcDbLine
6
CONTINUOUS
62
5
10
-117.705601
20
919.189269
11
-117.798508
21
919.157445
0
LINE
5
128
100
AcDbEntity
8
1
100
AcDbLine
6
CONTINUOUS
62
5
10
-117.558975
20
919.132980
11
-117.653420
21
919.106060
0
LINE
5
129
100
AcDbEntity
8
1
100
AcDbLine
6
CONTINUOUS
62
5
10
-117.415487
20
919.069102
11
-117.511214
21
919.047166
0
LINE
5
12a
100
AcDbEntity
8
1
100
AcDbLine
6
CONTINUOUS
62
5
10
-117.511215
20
919.047154
11
-117.558969
21
919.132982
0
LINE
5
12b
100
AcDbEntity
8
1
100
AcDbLine
6
CONTINUOUS
62
5
10
-117.275547
20
918.997788
11
-117.372287
21
918.980893
0
LINE
5
12c
100
AcDbEntity
8
1
100
AcDbLine
6
CONTINUOUS
62
5
10
-117.372286
20
918.980895
11
-117.415487
21
919.069101
0
LINE
5
12d
100
AcDbEntity
8
1
100
AcDbLine
6
CONTINUOUS
62
5
10
-118.006687
20
919.278452
11
-118.095760
21
919.237095
0
LINE
5
12e
100
AcDbEntity
8
1
100
AcDbLine
6
CONTINUOUS
62
5
10
-117.854977
20
919.237803
11
-117.946092
21
919.201158
0
LINE
5
12f
100
AcDbEntity
8
1
100
AcDbLine
6
CONTINUOUS
62
5
10
-117.946091
20
919.201159
11
-118.006686
21
919.278453
0
LINE
5
130
100
AcDbEntity
8
1
100
AcDbLine
6
CONTINUOUS
62
5
10
-117.798507
20
919.157442
11
-117.854977
21
919.237803
0
LINE
5
131
100
AcDbEntity
8
1
100
AcDbLine
6
CONTINUOUS
62
5
10
-117.105782
20
918.827025
11
-117.139529
21
918.919259
0
LINE
5
132
100
AcDbEntity
8
1
100
AcDbLine
6
CONTINUOUS
62
5
10
-117.139529
20
918.919261
11
-117.237021
21
918.907457
0
LINE
5
133
100
AcDbEntity
8
1
100
AcDbLine
6
CONTINUOUS
62
5
10
-117.237022
20
918.907457
11
-117.275546
21
918.997787
0
LINE
5
134
100
AcDbEntity
8
1
100
AcDbLine
6
CONTINUOUS
62
5
10
-119.615519
20
919.157430
11
-119.708433
21
919.189254
0
LINE
5
135
100
AcDbEntity
8
1
100
AcDbLine
6
CONTINUOUS
62
5
10
-119.708431
20
919.189255
11
-119.760610
21
919.106053
0
LINE
5
136
100
AcDbEntity
8
1
100
AcDbLine
6
CONTINUOUS
62
5
10
-119.760604
20
919.106054
11
-119.855062
21
919.132971
0
LINE
5
137
100
AcDbEntity
8
1
100
AcDbLine
6
CONTINUOUS
62
5
10
-119.855064
20
919.132968
11
-119.902817
21
919.047153
0
LINE
5
138
100
AcDbEntity
8
1
100
AcDbLine
6
CONTINUOUS
62
5
10
-119.902811
20
919.047152
11
-119.998545
21
919.069088
0
LINE
5
139
100
AcDbEntity
8
1
100
AcDbLine
6
CONTINUOUS
62
5
10
-119.998543
20
919.069089
11
-120.041738
21
918.980893
0
LINE
5
13a
100
AcDbEntity
8
1
100
AcDbLine
6
CONTINUOUS
62
5
10
-120.041733
20
918.980880
11
-120.138488
21
918.997787
0
LINE
5
13b
100
AcDbEntity
8
1
100
AcDbLine
6
CONTINUOUS
62
5
10
-120.274508
20
918.919261
11
-120.308242
21
918.827025
0
LINE
5
13c
100
AcDbEntity
8
1
100
AcDbLine
6
CONTINUOUS
62
5
10
-120.177006
20
918.907443
11
-120.274509
21
918.919259
0
LINE
5
13d
100
AcDbEntity
8
1
100
AcDbLine
6
CONTINUOUS
62
5
10
-120.138486
20
918.997787
11
-120.177010
21
918.907444
0
LINE
5
13e
100
AcDbEntity
8
1
100
AcDbLine
6
CONTINUOUS
62
5
10
-119.559061
20
919.237787
11
-119.615525
21
919.157431
0
LINE
5
13f
100
AcDbEntity
8
1
100
AcDbLine
6
CONTINUOUS
62
5
10
-119.253724
20
919.311106
11
-119.318272
21
919.237079
0
LINE
5
140
100
AcDbEntity
8
1
100
AcDbLine
6
CONTINUOUS
62
5
10
-119.407351
20
919.278438
11
-119.467940
21
919.201156
0
LINE
5
141
100
AcDbEntity
8
1
100
AcDbLine
6
CONTINUOUS
62
5
10
-119.318270
20
919.237079
11
-119.407351
21
919.278441
0
LINE
5
142
100
AcDbEntity
8
1
100
AcDbLine
6
CONTINUOUS
62
5
10
-119.467940
20
919.201145
11
-119.559061
21
919.237788
0
LINE
5
143
100
AcDbEntity
8
1
100
AcDbLine
6
CONTINUOUS
62
5
10
-119.166932
20
919.265136
11
-119.253724
21
919.311107
0
LINE
5
144
100
AcDbEntity
8
1
100
AcDbLine
6
CONTINUOUS
62
5
10
-119.098594
20
919.335663
11
-119.166932
21
919.265134
0
LINE
5
145
100
AcDbEntity
8
1
100
AcDbLine
6
CONTINUOUS
62
5
10
-119.014327
20
919.285227
11
-119.098592
21
919.335663
0
LINE
5
146
100
AcDbEntity
8
1
100
AcDbLine
6
CONTINUOUS
62
5
10
-118.942393
20
919.352085
11
-119.014327
21
919.285227
0
LINE
5
147
100
AcDbEntity
8
1
100
AcDbLine
6
CONTINUOUS
62
5
10
-118.785552
20
919.360309
11
-118.860889
21
919.297300
0
LINE
5
148
100
AcDbEntity
8
1
100
AcDbLine
6
CONTINUOUS
62
5
10
-118.860888
20
919.297299
11
-118.942394
21
919.352086
0
LINE
5
149
100
AcDbEntity
8
1
100
AcDbLine
6
CONTINUOUS
62
5
10
-118.315440
20
919.335663
11
-118.399705
21
919.285227
0
LINE
5
14a
100
AcDbEntity
8
1
100
AcDbLine
6
CONTINUOUS
62
5
10
-118.247103
20
919.265134
11
-118.315438
21
919.335665
0
LINE
5
14b
100
AcDbEntity
8
1
100
AcDbLine
6
CONTINUOUS
62
5
10
-118.095760
20
919.237079
11
-118.160311
21
919.311106
0
LINE
5
14c
100
AcDbEntity
8
1
100
AcDbLine
6
CONTINUOUS
62
5
10
-118.160313
20
919.311106
11
-118.247105
21
919.265134
0
LINE
5
14d
100
AcDbEntity
8
1
100
AcDbLine
6
CONTINUOUS
62
5
10
-118.628487
20
919.360309
11
-118.707017
21
919.301327
0
LINE
5
14e
100
AcDbEntity
8
1
100
AcDbLine
6
CONTINUOUS
62
5
10
-118.399705
20
919.285226
11
-118.471641
21
919.352085
0
LINE
5
14f
100
AcDbEntity
8
1
100
AcDbLine
6
CONTINUOUS
62
5
10
-118.471639
20
919.352085
11
-118.553152
21
919.297299
0
LINE
5
150
100
AcDbEntity
8
1
100
AcDbLine
6
CONTINUOUS
62
5
10
-118.553146
20
919.297300
11
-118.628487
21
919.360311
0
LINE
5
151
100
AcDbEntity
8
1
100
AcDbLine
6
CONTINUOUS
62
5
10
-118.707017
20
919.301328
11
-118.785549
21
919.360309
0
LINE
5
152
100
AcDbEntity
8
1
100
AcDbLine
6
CONTINUOUS
62
5
10
-120.308243
20
918.827024
11
-120.406229
21
918.833713
0
LINE
5
153
100
AcDbEntity
8
1
100
AcDbLine
6
CONTINUOUS
62
5
10
-120.533294
20
918.741390
11
-120.557206
21
918.646140
0
LINE
5
154
100
AcDbEntity
8
1
100
AcDbLine
6
CONTINUOUS
62
5
10
-120.435093
20
918.739842
11
-120.533294
21
918.741392
0
LINE
5
155
100
AcDbEntity
8
1
100
AcDbLine
6
CONTINUOUS
62
5
10
-120.406229
20
918.833714
11
-120.435094
21
918.739840
0
LINE
5
156
100
AcDbEntity
8
1
100
AcDbLine
6
CONTINUOUS
62
5
10
-121.630880
20
916.668662
11
-121.697744
21
916.596714
0
LINE
5
157
100
AcDbEntity
8
1
100
AcDbLine
6
CONTINUOUS
62
5
10
-121.610787
20
916.821262
11
-121.681332
21
916.752915
0
LINE
5
158
100
AcDbEntity
8
1
100
AcDbLine
6
CONTINUOUS
62
5
10
-121.681332
20
916.752915
11
-121.630886
21
916.668663
0
LINE
5
159
100
AcDbEntity
8
1
100
AcDbLine
6
CONTINUOUS
62
5
10
-121.656759
20
916.908042
11
-121.610793
21
916.821262
0
LINE
5
15a
100
AcDbEntity
8
1
100
AcDbLine
6
CONTINUOUS
62
5
10
-121.546813
20
917.122275
11
-121.624107
21
917.061680
0
LINE
5
15b
100
AcDbEntity
8
1
100
AcDbLine
6
CONTINUOUS
62
5
10
-121.624103
20
917.061680
11
-121.582749
21
916.972606
0
LINE
5
15c
100
AcDbEntity
8
1
100
AcDbLine
6
CONTINUOUS
62
5
10
-121.582743
20
916.972606
11
-121.656759
21
916.908043
0
LINE
5
15d
100
AcDbEntity
8
1
100
AcDbLine
6
CONTINUOUS
62
5
10
-121.656757
20
915.814644
11
-121.582743
21
915.750095
0
LINE
5
15e
100
AcDbEntity
8
1
100
AcDbLine
6
CONTINUOUS
62
5
10
-121.646987
20
916.361350
11
-121.705965
21
916.282810
0
LINE
5
15f
100
AcDbEntity
8
1
100
AcDbLine
6
CONTINUOUS
62
5
10
-121.705967
20
916.282811
11
-121.642959
21
916.207480
0
LINE
5
160
100
AcDbEntity
8
1
100
AcDbLine
6
CONTINUOUS
62
5
10
-121.610787
20
915.901438
11
-121.656757
21
915.814646
0
LINE
5
161
100
AcDbEntity
8
1
100
AcDbLine
6
CONTINUOUS
62
5
10
-121.681325
20
915.969773
11
-121.610793
21
915.901438
0
LINE
5
162
100
AcDbEntity
8
1
100
AcDbLine
6
CONTINUOUS
62
5
10
-121.630881
20
916.054036
11
-121.681325
21
915.969773
0
LINE
5
163
100
AcDbEntity
8
1
100
AcDbLine
6
CONTINUOUS
62
5
10
-121.642953
20
916.207480
11
-121.697745
21
916.125974
0
LINE
5
164
100
AcDbEntity
8
1
100
AcDbLine
6
CONTINUOUS
62
5
10
-121.697744
20
916.125972
11
-121.630880
21
916.054038
0
LINE
5
165
100
AcDbEntity
8
1
100
AcDbLine
6
CONTINUOUS
62
5
10
-121.697752
20
916.596714
11
-121.642965
21
916.515207
0
LINE
5
166
100
AcDbEntity
8
1
100
AcDbLine
6
CONTINUOUS
62
5
10
-121.642953
20
916.515221
11
-121.705967
21
916.439879
0
LINE
5
167
100
AcDbEntity
8
1
100
AcDbLine
6
CONTINUOUS
62
5
10
-121.705965
20
916.439878
11
-121.646993
21
916.361350
0
LINE
5
168
100
AcDbEntity
8
1
100
AcDbLine
6
CONTINUOUS
62
5
10
-120.445682
20
915.895475
11
-121.025242
21
915.740183
0
POLYLINE
5
169
100
AcDbEntity
8
1
6
CONTINUOUS
62
1
100
AcDb2dPolyline
66
1
10
0.0
20
0.0
30
0.0
70
0
0
VERTEX
5
16a
100
AcDbEntity
8
1
100
AcDbVertex
100
AcDb2dVertex
62
1
10
-118.582017
20
906.971350
0
VERTEX
5
16b
100
AcDbEntity
8
1
100
AcDbVertex
100
AcDb2dVertex
62
1
10
-118.582017
20
907.721350
0
VERTEX
5
16c
100
AcDbEntity
8
1
100
AcDbVertex
100
AcDb2dVertex
62
1
10
-118.269517
20
906.971350
0
VERTEX
5
16d
100
AcDbEntity
8
1
100
AcDbVertex
100
AcDb2dVertex
62
1
10
-118.269517
20
907.721350
0
SEQEND
5
16e
100
AcDbEntity
8
1
0
POLYLINE
5
16f
100
AcDbEntity
8
1
6
CONTINUOUS
62
1
100
AcDb2dPolyline
66
1
10
0.0
20
0.0
30
0.0
70
0
0
VERTEX
5
170
100
AcDbEntity
8
1
100
AcDbVertex
100
AcDb2dVertex
62
1
10
-117.269517
20
907.721350
0
VERTEX
5
171
100
AcDbEntity
8
1
100
AcDbVertex
100
AcDb2dVertex
62
1
10
-117.582017
20
907.721350
0
VERTEX
5
172
100
AcDbEntity
8
1
100
AcDbVertex
100
AcDb2dVertex
62
1
10
-117.582017
20
906.971350
0
VERTEX
5
173
100
AcDbEntity
8
1
100
AcDbVertex
100
AcDb2dVertex
62
1
10
-117.238267
20
906.971350
0
SEQEND
5
174
100
AcDbEntity
8
1
0
LINE
5
175
100
AcDbEntity
8
1
100
AcDbLine
6
CONTINUOUS
62
1
10
-117.582017
20
907.346350
11
-117.300767
21
907.346350
0
LINE
5
176
100
AcDbEntity
8
1
100
AcDbLine
6
CONTINUOUS
62
1
10
-119.582017
20
907.721350
11
-119.582017
21
906.971350
0
POLYLINE
5
177
100
AcDbEntity
8
1
6
CONTINUOUS
62
1
100
AcDb2dPolyline
66
1
10
0.0
20
0.0
30
0.0
70
0
0
VERTEX
5
178
100
AcDbEntity
8
1
100
AcDbVertex
100
AcDb2dVertex
62
1
10
-119.582017
20
907.721350
0
VERTEX
5
179
100
AcDbEntity
8
1
100
AcDbVertex
100
AcDb2dVertex
62
1
10
-119.457017
20
907.721350
0
VERTEX
5
17a
100
AcDbEntity
8
1
100
AcDbVertex
100
AcDb2dVertex
62
1
10
-119.363267
20
907.690100
0
VERTEX
5
17b
100
AcDbEntity
8
1
100
AcDbVertex
100
AcDb2dVertex
62
1
10
-119.332017
20
907.658850
0
VERTEX
5
17c
100
AcDbEntity
8
1
100
AcDbVertex
100
AcDb2dVertex
62
1
10
-119.300767
20
907.565100
0
VERTEX
5
17d
100
AcDbEntity
8
1
100
AcDbVertex
100
AcDb2dVertex
62
1
10
-119.300767
20
907.471350
0
VERTEX
5
17e
100
AcDbEntity
8
1
100
AcDbVertex
100
AcDb2dVertex
62
1
10
-119.332017
20
907.408850
0
VERTEX
5
17f
100
AcDbEntity
8
1
100
AcDbVertex
100
AcDb2dVertex
62
1
10
-119.425767
20
907.346350
0
VERTEX
5
180
100
AcDbEntity
8
1
100
AcDbVertex
100
AcDb2dVertex
62
1
10
-119.582017
20
907.346350
0
SEQEND
5
181
100
AcDbEntity
8
1
0
POLYLINE
5
182
100
AcDbEntity
8
1
6
CONTINUOUS
62
1
100
AcDb2dPolyline
66
1
10
0.0
20
0.0
30
0.0
70
0
0
VERTEX
5
183
100
AcDbEntity
8
1
100
AcDbVertex
100
AcDb2dVertex
62
1
10
-119.425767
20
907.346350
0
VERTEX
5
184
100
AcDbEntity
8
1
100
AcDbVertex
100
AcDb2dVertex
62
1
10
-119.363267
20
907.315100
0
VERTEX
5
185
100
AcDbEntity
8
1
100
AcDbVertex
100
AcDb2dVertex
62
1
10
-119.332017
20
907.252600
0
VERTEX
5
186
100
AcDbEntity
8
1
100
AcDbVertex
100
AcDb2dVertex
62
1
10
-119.332017
20
907.033850
0
VERTEX
5
187
100
AcDbEntity
8
1
100
AcDbVertex
100
AcDb2dVertex
62
1
10
-119.300767
20
906.971350
0
VERTEX
5
188
100
AcDbEntity
8
1
100
AcDbVertex
100
AcDb2dVertex
62
1
10
-119.269517
20
906.971350
0
VERTEX
5
189
100
AcDbEntity
8
1
100
AcDbVertex
100
AcDb2dVertex
62
1
10
-119.238267
20
907.033850
0
SEQEND
5
18a
100
AcDbEntity
8
1
0
POLYLINE
5
18b
100
AcDbEntity
8
1
6
CONTINUOUS
62
1
100
AcDb2dPolyline
66
1
10
0.0
20
0.0
30
0.0
70
0
0
VERTEX
5
18c
100
AcDbEntity
8
1
100
AcDbVertex
100
AcDb2dVertex
62
1
10
-119.082017
20
907.721350
0
VERTEX
5
18d
100
AcDbEntity
8
1
100
AcDbVertex
100
AcDb2dVertex
62
1
10
-119.082017
20
907.127600
0
VERTEX
5
18e
100
AcDbEntity
8
1
100
AcDbVertex
100
AcDb2dVertex
62
1
10
-119.050767
20
907.033850
0
VERTEX
5
18f
100
AcDbEntity
8
1
100
AcDbVertex
100
AcDb2dVertex
62
1
10
-119.019517
20
907.002600
0
VERTEX
5
190
100
AcDbEntity
8
1
100
AcDbVertex
100
AcDb2dVertex
62
1
10
-118.957017
20
906.971350
0
VERTEX
5
191
100
AcDbEntity
8
1
100
AcDbVertex
100
AcDb2dVertex
62
1
10
-118.894517
20
906.971350
0
VERTEX
5
192
100
AcDbEntity
8
1
100
AcDbVertex
100
AcDb2dVertex
62
1
10
-118.832017
20
907.002600
0
VERTEX
5
193
100
AcDbEntity
8
1
100
AcDbVertex
100
AcDb2dVertex
62
1
10
-118.800767
20
907.033850
0
VERTEX
5
194
100
AcDbEntity
8
1
100
AcDbVertex
100
AcDb2dVertex
62
1
10
-118.769517
20
907.127600
0
VERTEX
5
195
100
AcDbEntity
8
1
100
AcDbVertex
100
AcDb2dVertex
62
1
10
-118.769517
20
907.721350
0
SEQEND
5
196
100
AcDbEntity
8
1
0
LINE
5
197
100
AcDbEntity
8
0
100
AcDbLine
6
DASHED
62
5
10
-118.557017
20
906.341149
11
-118.857017
21
906.341149
0
LINE
5
198
100
AcDbEntity
8
1
100
AcDbLine
6
CONTINUOUS
62
5
10
-117.372286
20
913.741794
11
-117.275542
21
913.724900
0
LINE
5
199
100
AcDbEntity
8
1
100
AcDbLine
6
CONTINUOUS
62
5
10
-117.275542
20
913.724898
11
-117.237021
21
913.815232
0
LINE
5
19a
100
AcDbEntity
8
1
100
AcDbLine
6
CONTINUOUS
62
5
10
-117.237021
20
913.815246
11
-117.139522
21
913.803429
0
LINE
5
19b
100
AcDbEntity
8
1
100
AcDbLine
6
CONTINUOUS
62
5
10
-117.139523
20
913.803428
11
-117.105777
21
913.895664
0
LINE
5
19c
100
AcDbEntity
8
1
100
AcDbLine
6
CONTINUOUS
62
5
10
-118.095756
20
913.485593
11
-118.006681
21
913.444236
0
LINE
5
19d
100
AcDbEntity
8
1
100
AcDbLine
6
CONTINUOUS
62
5
10
-118.006681
20
913.444234
11
-117.946091
21
913.521534
0
LINE
5
19e
100
AcDbEntity
8
1
100
AcDbLine
6
CONTINUOUS
62
5
10
-117.946091
20
913.521535
11
-117.854970
21
913.484887
0
LINE
5
19f
100
AcDbEntity
8
1
100
AcDbLine
6
CONTINUOUS
62
5
10
-117.854969
20
913.484897
11
-117.798505
21
913.565244
0
LINE
5
1a0
100
AcDbEntity
8
1
100
AcDbLine
6
CONTINUOUS
62
5
10
-117.798507
20
913.565246
11
-117.705595
21
913.533422
0
LINE
5
1a1
100
AcDbEntity
8
1
100
AcDbLine
6
CONTINUOUS
62
5
10
-117.705595
20
913.533436
11
-117.653416
21
913.616623
0
LINE
5
1a2
100
AcDbEntity
8
1
100
AcDbLine
6
CONTINUOUS
62
5
10
-117.415481
20
913.653602
11
-117.372286
21
913.741794
0
LINE
5
1a3
100
AcDbEntity
8
1
100
AcDbLine
6
CONTINUOUS
62
5
10
-117.511214
20
913.675538
11
-117.415481
21
913.653602
0
LINE
5
1a4
100
AcDbEntity
8
1
100
AcDbLine
6
CONTINUOUS
62
5
10
-117.653416
20
913.616623
11
-117.558969
21
913.589707
0
LINE
5
1a5
100
AcDbEntity
8
1
100
AcDbLine
6
CONTINUOUS
62
5
10
-117.558968
20
913.589719
11
-117.511208
21
913.675522
0
LINE
5
1a6
100
AcDbEntity
8
1
100
AcDbLine
6
CONTINUOUS
62
5
10
-120.138473
20
913.724926
11
-120.041732
21
913.741820
0
LINE
5
1a7
100
AcDbEntity
8
1
100
AcDbLine
6
CONTINUOUS
62
5
10
-120.176998
20
913.815271
11
-120.138473
21
913.724926
0
LINE
5
1a8
100
AcDbEntity
8
1
100
AcDbLine
6
CONTINUOUS
62
5
10
-120.274497
20
913.803450
11
-120.177000
21
913.815255
0
LINE
5
1a9
100
AcDbEntity
8
1
100
AcDbLine
6
CONTINUOUS
62
5
10
-120.308236
20
913.895687
11
-120.274497
21
913.803454
0
LINE
5
1aa
100
AcDbEntity
8
1
100
AcDbLine
6
CONTINUOUS
62
5
10
-119.318272
20
913.485630
11
-119.253715
21
913.411620
0
LINE
5
1ab
100
AcDbEntity
8
1
100
AcDbLine
6
CONTINUOUS
62
5
10
-119.467936
20
913.521566
11
-119.407340
21
913.444272
0
LINE
5
1ac
100
AcDbEntity
8
1
100
AcDbLine
6
CONTINUOUS
62
5
10
-119.407339
20
913.444271
11
-119.318270
21
913.485628
0
LINE
5
1ad
100
AcDbEntity
8
1
100
AcDbLine
6
CONTINUOUS
62
5
10
-119.559048
20
913.484920
11
-119.467934
21
913.521554
0
LINE
5
1ae
100
AcDbEntity
8
1
100
AcDbLine
6
CONTINUOUS
62
5
10
-119.615519
20
913.565282
11
-119.559049
21
913.484920
0
LINE
5
1af
100
AcDbEntity
8
1
100
AcDbLine
6
CONTINUOUS
62
5
10
-119.708420
20
913.533446
11
-119.615513
21
913.565273
0
LINE
5
1b0
100
AcDbEntity
8
1
100
AcDbLine
6
CONTINUOUS
62
5
10
-119.760604
20
913.616660
11
-119.708420
21
913.533445
0
LINE
5
1b1
100
AcDbEntity
8
1
100
AcDbLine
6
CONTINUOUS
62
5
10
-119.855053
20
913.589731
11
-119.760606
21
913.616648
0
LINE
5
1b2
100
AcDbEntity
8
1
100
AcDbLine
6
CONTINUOUS
62
5
10
-119.902811
20
913.675560
11
-119.855051
21
913.589733
0
LINE
5
1b3
100
AcDbEntity
8
1
100
AcDbLine
6
CONTINUOUS
62
5
10
-119.998533
20
913.653623
11
-119.902805
21
913.675559
0
LINE
5
1b4
100
AcDbEntity
8
1
100
AcDbLine
6
CONTINUOUS
62
5
10
-120.041733
20
913.741817
11
-119.998534
21
913.653624
0
LINE
5
1b5
100
AcDbEntity
8
1
100
AcDbLine
6
CONTINUOUS
62
5
10
-119.253715
20
913.411623
11
-119.166929
21
913.457580
0
LINE
5
1b6
100
AcDbEntity
8
1
100
AcDbLine
6
CONTINUOUS
62
5
10
-119.166929
20
913.457578
11
-119.098588
21
913.387044
0
LINE
5
1b7
100
AcDbEntity
8
1
100
AcDbLine
6
CONTINUOUS
62
5
10
-119.098586
20
913.387046
11
-119.014327
21
913.437485
0
LINE
5
1b8
100
AcDbEntity
8
1
100
AcDbLine
6
CONTINUOUS
62
5
10
-119.014327
20
913.437497
11
-118.942385
21
913.370627
0
LINE
5
1b9
100
AcDbEntity
8
1
100
AcDbLine
6
CONTINUOUS
62
5
10
-118.785546
20
913.362375
11
-118.860885
21
913.425374
0
LINE
5
1ba
100
AcDbEntity
8
1
100
AcDbLine
6
CONTINUOUS
62
5
10
-118.942387
20
913.370627
11
-118.860877
21
913.425416
0
LINE
5
1bb
100
AcDbEntity
8
1
100
AcDbLine
6
CONTINUOUS
62
5
10
-120.191939
20
914.876424
11
-120.047019
21
914.040403
0
LINE
5
1bc
100
AcDbEntity
8
1
100
AcDbLine
6
CONTINUOUS
62
5
10
-119.907017
20
914.282885
11
-120.047019
21
914.040403
0
LINE
5
1bd
100
AcDbEntity
8
1
100
AcDbLine
6
CONTINUOUS
62
5
10
-118.247098
20
913.457554
11
-118.160311
21
913.411582
0
LINE
5
1be
100
AcDbEntity
8
1
100
AcDbLine
6
CONTINUOUS
62
5
10
-118.160311
20
913.411582
11
-118.095754
21
913.485593
0
LINE
5
1bf
100
AcDbEntity
8
1
100
AcDbLine
6
CONTINUOUS
62
5
10
-118.399703
20
913.437461
11
-118.315438
21
913.387009
0
LINE
5
1c0
100
AcDbEntity
8
1
100
AcDbLine
6
CONTINUOUS
62
5
10
-118.315438
20
913.387020
11
-118.247098
21
913.457540
0
LINE
5
1c1
100
AcDbEntity
8
1
100
AcDbLine
6
CONTINUOUS
62
5
10
-118.707017
20
913.421346
11
-118.628489
21
913.362374
0
LINE
5
1c2
100
AcDbEntity
8
1
100
AcDbLine
6
CONTINUOUS
62
5
10
-118.471639
20
913.370603
11
-118.399703
21
913.437459
0
LINE
5
1c3
100
AcDbEntity
8
1
100
AcDbLine
6
CONTINUOUS
62
5
10
-118.553149
20
913.425377
11
-118.471641
21
913.370603
0
LINE
5
1c4
100
AcDbEntity
8
1
100
AcDbLine
6
CONTINUOUS
62
5
10
-118.628487
20
913.362375
11
-118.553146
21
913.425376
0
LINE
5
1c5
100
AcDbEntity
8
1
100
AcDbLine
6
CONTINUOUS
62
5
10
-118.707015
20
913.421348
11
-118.785543
21
913.362375
0
POLYLINE
5
1c6
100
AcDbEntity
8
1
6
CONTINUOUS
62
1
100
AcDb2dPolyline
66
1
10
0.0
20
0.0
30
0.0
70
0
0
VERTEX
5
1c7
100
AcDbEntity
8
1
100
AcDbVertex
100
AcDb2dVertex
62
1
10
-121.769517
20
907.721350
0
VERTEX
5
1c8
100
AcDbEntity
8
1
100
AcDbVertex
100
AcDb2dVertex
62
1
10
-122.082017
20
907.721350
0
VERTEX
5
1c9
100
AcDbEntity
8
1
100
AcDbVertex
100
AcDb2dVertex
62
1
10
-122.082017
20
906.971350
0
VERTEX
5
1ca
100
AcDbEntity
8
1
100
AcDbVertex
100
AcDb2dVertex
62
1
10
-121.738267
20
906.971350
0
SEQEND
5
1cb
100
AcDbEntity
8
1
0
LINE
5
1cc
100
AcDbEntity
8
1
100
AcDbLine
6
CONTINUOUS
62
1
10
-122.082017
20
907.346350
11
-121.800767
21
907.346350
0
LINE
5
1cd
100
AcDbEntity
8
1
100
AcDbLine
6
CONTINUOUS
62
1
10
-122.582017
20
907.721350
11
-122.269517
21
907.721350
0
LINE
5
1ce
100
AcDbEntity
8
1
100
AcDbLine
6
CONTINUOUS
62
1
10
-122.425767
20
907.721350
11
-122.425767
21
906.971350
0
POLYLINE
5
1cf
100
AcDbEntity
8
1
6
CONTINUOUS
62
1
100
AcDb2dPolyline
66
1
10
0.0
20
0.0
30
0.0
70
0
0
VERTEX
5
1d0
100
AcDbEntity
8
1
100
AcDbVertex
100
AcDb2dVertex
62
1
10
-121.582017
20
906.971350
0
VERTEX
5
1d1
100
AcDbEntity
8
1
100
AcDbVertex
100
AcDb2dVertex
62
1
10
-121.425767
20
907.721350
0
VERTEX
5
1d2
100
AcDbEntity
8
1
100
AcDbVertex
100
AcDb2dVertex
62
1
10
-121.269517
20
906.971350
0
SEQEND
5
1d3
100
AcDbEntity
8
1
0
LINE
5
1d4
100
AcDbEntity
8
1
100
AcDbLine
6
CONTINUOUS
62
1
10
-121.519517
20
907.221350
11
-121.332017
21
907.221350
0
LINE
5
1d5
100
AcDbEntity
8
1
100
AcDbLine
6
CONTINUOUS
62
5
10
-121.264915
20
914.793857
11
-121.172683
21
914.760129
0
LINE
5
1d6
100
AcDbEntity
8
1
100
AcDbLine
6
CONTINUOUS
62
5
10
-121.253103
20
914.891367
11
-121.264915
21
914.793859
0
LINE
5
1d7
100
AcDbEntity
8
1
100
AcDbLine
6
CONTINUOUS
62
5
10
-121.172677
20
914.760128
11
-121.179368
21
914.662142
0
LINE
5
1d8
100
AcDbEntity
8
1
100
AcDbLine
6
CONTINUOUS
62
1
10
-120.582017
20
907.721350
11
-120.582017
21
906.971350
0
LINE
5
1d9
100
AcDbEntity
8
1
100
AcDbLine
6
CONTINUOUS
62
1
10
-120.582017
20
907.346350
11
-120.300767
21
907.346350
0
LINE
5
1da
100
AcDbEntity
8
1
100
AcDbLine
6
CONTINUOUS
62
1
10
-120.300767
20
907.721350
11
-120.300767
21
906.971350
0
POLYLINE
5
1db
100
AcDbEntity
8
1
6
CONTINUOUS
62
1
100
AcDb2dPolyline
66
1
10
0.0
20
0.0
30
0.0
70
0
0
VERTEX
5
1dc
100
AcDbEntity
8
1
100
AcDbVertex
100
AcDb2dVertex
62
1
10
-120.769517
20
907.565100
0
VERTEX
5
1dd
100
AcDbEntity
8
1
100
AcDbVertex
100
AcDb2dVertex
62
1
10
-120.800767
20
907.658850
0
VERTEX
5
1de
100
AcDbEntity
8
1
100
AcDbVertex
100
AcDb2dVertex
62
1
10
-120.863267
20
907.721350
0
VERTEX
5
1df
100
AcDbEntity
8
1
100
AcDbVertex
100
AcDb2dVertex
62
1
10
-120.957017
20
907.721350
0
VERTEX
5
1e0
100
AcDbEntity
8
1
100
AcDbVertex
100
AcDb2dVertex
62
1
10
-121.050767
20
907.627600
0
VERTEX
5
1e1
100
AcDbEntity
8
1
100
AcDbVertex
100
AcDb2dVertex
62
1
10
-121.082017
20
907.471350
0
VERTEX
5
1e2
100
AcDbEntity
8
1
100
AcDbVertex
100
AcDb2dVertex
62
1
10
-121.082017
20
907.221350
0
VERTEX
5
1e3
100
AcDbEntity
8
1
100
AcDbVertex
100
AcDb2dVertex
62
1
10
-121.050767
20
907.065100
0
VERTEX
5
1e4
100
AcDbEntity
8
1
100
AcDbVertex
100
AcDb2dVertex
62
1
10
-120.957017
20
906.971350
0
VERTEX
5
1e5
100
AcDbEntity
8
1
100
AcDbVertex
100
AcDb2dVertex
62
1
10
-120.863267
20
906.971350
0
VERTEX
5
1e6
100
AcDbEntity
8
1
100
AcDbVertex
100
AcDb2dVertex
62
1
10
-120.800767
20
907.033850
0
VERTEX
5
1e7
100
AcDbEntity
8
1
100
AcDbVertex
100
AcDb2dVertex
62
1
10
-120.738267
20
907.190100
0
SEQEND
5
1e8
100
AcDbEntity
8
1
0
LINE
5
1e9
100
AcDbEntity
8
1
100
AcDbLine
6
CONTINUOUS
62
5
10
-120.557198
20
914.076572
11
-120.533277
21
913.981313
0
LINE
5
1ea
100
AcDbEntity
8
1
100
AcDbLine
6
CONTINUOUS
62
5
10
-120.533279
20
913.981310
11
-120.435087
21
913.982857
0
LINE
5
1eb
100
AcDbEntity
8
1
100
AcDbLine
6
CONTINUOUS
62
5
10
-120.435087
20
913.982871
11
-120.406217
21
913.888985
0
LINE
5
1ec
100
AcDbEntity
8
1
100
AcDbLine
6
CONTINUOUS
62
5
10
-120.406216
20
913.888987
11
-120.308236
21
913.895688
0
LINE
5
1ed
100
AcDbEntity
8
1
100
AcDbLine
6
CONTINUOUS
62
5
10
-120.655341
20
914.080147
11
-120.557198
21
914.076558
0
LINE
5
1ee
100
AcDbEntity
8
1
100
AcDbLine
6
CONTINUOUS
62
5
10
-120.772056
20
914.185241
11
-120.674241
21
914.176525
0
LINE
5
1ef
100
AcDbEntity
8
1
100
AcDbLine
6
CONTINUOUS
62
5
10
-120.674241
20
914.176534
11
-120.655337
21
914.080150
0
LINE
5
1f0
100
AcDbEntity
8
1
100
AcDbLine
6
CONTINUOUS
62
5
10
-120.785885
20
914.282479
11
-120.772056
21
914.185241
0
LINE
5
1f1
100
AcDbEntity
8
1
100
AcDbLine
6
CONTINUOUS
62
5
10
-120.883115
20
914.296299
11
-120.785883
21
914.282479
0
LINE
5
1f2
100
AcDbEntity
8
1
100
AcDbLine
6
CONTINUOUS
62
5
10
-120.891843
20
914.394127
11
-120.883115
21
914.296300
0
LINE
5
1f3
100
AcDbEntity
8
1
100
AcDbLine
6
CONTINUOUS
62
5
10
-121.179374
20
914.662143
11
-121.085502
21
914.633272
0
LINE
5
1f4
100
AcDbEntity
8
1
100
AcDbLine
6
CONTINUOUS
62
5
10
-121.085502
20
914.633284
11
-121.087051
21
914.535082
0
LINE
5
1f5
100
AcDbEntity
8
1
100
AcDbLine
6
CONTINUOUS
62
5
10
-121.087055
20
914.535083
11
-120.991801
21
914.511167
0
LINE
5
1f6
100
AcDbEntity
8
1
100
AcDbLine
6
CONTINUOUS
62
5
10
-120.991801
20
914.511165
11
-120.988212
21
914.413022
0
LINE
5
1f7
100
AcDbEntity
8
1
100
AcDbLine
6
CONTINUOUS
62
5
10
-120.988212
20
914.413022
11
-120.891843
21
914.394126
0
LINE
5
1f8
100
AcDbEntity
8
1
100
AcDbLine
6
CONTINUOUS
62
5
10
-119.447021
20
915.079630
11
-119.607017
21
914.802501
0
LINE
5
1f9
100
AcDbEntity
8
1
100
AcDbLine
6
CONTINUOUS
62
5
10
-119.447018
20
915.079630
11
-120.191939
21
914.876426
0
ARC
5
1fa
100
AcDbEntity
8
1
100
AcDbCircle
6
CONTINUOUS
62
5
10
-118.707017
20
916.361350
40
1.800000
100
AcDbArc
50
-120.000002
51
-45.000001
0
LINE
5
1fb
100
AcDbEntity
8
1
100
AcDbLine
6
CONTINUOUS
62
5
10
-121.624105
20
915.661008
11
-121.546810
21
915.600423
0
LINE
5
1fc
100
AcDbEntity
8
1
100
AcDbLine
6
CONTINUOUS
62
5
10
-121.546812
20
915.600437
11
-121.583451
21
915.509299
0
LINE
5
1fd
100
AcDbEntity
8
1
100
AcDbLine
6
CONTINUOUS
62
5
10
-121.583449
20
915.509299
11
-121.503095
21
915.452842
0
LINE
5
1fe
100
AcDbEntity
8
1
100
AcDbLine
6
CONTINUOUS
62
5
10
-121.582737
20
915.750095
11
-121.624105
21
915.661010
0
LINE
5
1ff
100
AcDbEntity
8
1
100
AcDbLine
6
CONTINUOUS
62
5
10
-121.503091
20
915.452854
11
-121.534916
21
915.359934
0
LINE
5
200
100
AcDbEntity
8
1
100
AcDbLine
6
CONTINUOUS
62
5
10
-121.534916
20
915.359935
11
-121.451719
21
915.307763
0
LINE
5
201
100
AcDbEntity
8
1
100
AcDbLine
6
CONTINUOUS
62
5
10
-121.392812
20
915.165561
11
-121.414748
21
915.069822
0
LINE
5
202
100
AcDbEntity
8
1
100
AcDbLine
6
CONTINUOUS
62
5
10
-121.478634
20
915.213303
11
-121.392814
21
915.165549
0
LINE
5
203
100
AcDbEntity
8
1
100
AcDbLine
6
CONTINUOUS
62
5
10
-121.451711
20
915.307761
11
-121.478628
21
915.213305
0
LINE
5
204
100
AcDbEntity
8
1
100
AcDbLine
6
CONTINUOUS
62
5
10
-121.343442
20
914.929880
11
-121.253110
21
914.891367
0
LINE
5
205
100
AcDbEntity
8
1
100
AcDbLine
6
CONTINUOUS
62
5
10
-121.414750
20
915.069822
11
-121.326548
21
915.026633
0
LINE
5
206
100
AcDbEntity
8
1
100
AcDbLine
6
CONTINUOUS
62
5
10
-121.326549
20
915.026633
11
-121.343442
21
914.929880
0
LINE
5
207
100
AcDbEntity
8
1
100
AcDbLine
6
CONTINUOUS
62
5
10
-119.447018
20
917.643063
11
-119.607015
21
917.920194
0
LINE
5
208
100
AcDbEntity
8
1
100
AcDbLine
6
CONTINUOUS
62
5
10
-119.447019
20
917.643064
11
-119.250538
21
918.389791
0
LINE
5
209
100
AcDbEntity
8
1
100
AcDbLine
6
CONTINUOUS
62
5
10
-121.343453
20
917.792807
11
-121.326557
21
917.696066
0
LINE
5
20a
100
AcDbEntity
8
1
100
AcDbLine
6
CONTINUOUS
62
5
10
-121.326546
20
917.696068
11
-121.414756
21
917.652866
0
LINE
5
20b
100
AcDbEntity
8
1
100
AcDbLine
6
CONTINUOUS
62
5
10
-121.172683
20
917.962571
11
-121.264921
21
917.928830
0
LINE
5
20c
100
AcDbEntity
8
1
100
AcDbLine
6
CONTINUOUS
62
5
10
-121.253109
20
917.831333
11
-121.343453
21
917.792807
0
LINE
5
20d
100
AcDbEntity
8
1
100
AcDbLine
6
CONTINUOUS
62
5
10
-121.264925
20
917.928830
11
-121.253107
21
917.831333
0
LINE
5
20e
100
AcDbEntity
8
1
100
AcDbLine
6
CONTINUOUS
62
5
10
-121.583457
20
917.213392
11
-121.546818
21
917.122265
0
LINE
5
20f
100
AcDbEntity
8
1
100
AcDbLine
6
CONTINUOUS
62
5
10
-121.534922
20
917.362754
11
-121.503095
21
917.269845
0
LINE
5
210
100
AcDbEntity
8
1
100
AcDbLine
6
CONTINUOUS
62
5
10
-121.451717
20
917.414939
11
-121.534922
21
917.362754
0
LINE
5
211
100
AcDbEntity
8
1
100
AcDbLine
6
CONTINUOUS
62
5
10
-121.503095
20
917.269846
11
-121.583457
21
917.213392
0
LINE
5
212
100
AcDbEntity
8
1
100
AcDbLine
6
CONTINUOUS
62
5
10
-121.392814
20
917.557138
11
-121.478635
21
917.509385
0
LINE
5
213
100
AcDbEntity
8
1
100
AcDbLine
6
CONTINUOUS
62
5
10
-121.478635
20
917.509383
11
-121.451719
21
917.414937
0
LINE
5
214
100
AcDbEntity
8
1
100
AcDbLine
6
CONTINUOUS
62
5
10
-121.414754
20
917.652866
11
-121.392818
21
917.557139
0
ARC
5
215
100
AcDbEntity
8
1
100
AcDbCircle
6
CONTINUOUS
62
5
10
-118.707017
20
916.361350
40
1.800000
100
AcDbArc
50
120.000002
51
-164.999997
0
ARC
5
216
100
AcDbEntity
8
1
100
AcDbCircle
6
CONTINUOUS
62
5
10
-118.707017
20
916.361350
40
2.400000
100
AcDbArc
50
120.000002
51
-164.999997
0
POLYLINE
5
217
100
AcDbEntity
8
1
6
CONTINUOUS
62
1
100
AcDb2dPolyline
66
1
10
0.0
20
0.0
30
0.0
70
0
0
VERTEX
5
218
100
AcDbEntity
8
1
100
AcDbVertex
100
AcDb2dVertex
62
1
10
-117.832017
20
920.611350
0
VERTEX
5
219
100
AcDbEntity
8
1
100
AcDbVertex
100
AcDb2dVertex
62
1
10
-117.832017
20
921.361350
0
VERTEX
5
21a
100
AcDbEntity
8
1
100
AcDbVertex
100
AcDb2dVertex
62
1
10
-117.519517
20
920.611350
0
VERTEX
5
21b
100
AcDbEntity
8
1
100
AcDbVertex
100
AcDb2dVertex
62
1
10
-117.519517
20
921.361350
0
SEQEND
5
21c
100
AcDbEntity
8
1
0
POLYLINE
5
21d
100
AcDbEntity
8
1
6
CONTINUOUS
62
1
100
AcDb2dPolyline
66
1
10
0.0
20
0.0
30
0.0
70
0
0
VERTEX
5
21e
100
AcDbEntity
8
1
100
AcDbVertex
100
AcDb2dVertex
62
1
10
-118.019517
20
921.361350
0
VERTEX
5
21f
100
AcDbEntity
8
1
100
AcDbVertex
100
AcDb2dVertex
62
1
10
-118.332017
20
921.361350
0
VERTEX
5
220
100
AcDbEntity
8
1
100
AcDbVertex
100
AcDb2dVertex
62
1
10
-118.332017
20
920.611350
0
VERTEX
5
221
100
AcDbEntity
8
1
100
AcDbVertex
100
AcDb2dVertex
62
1
10
-117.988267
20
920.611350
0
SEQEND
5
222
100
AcDbEntity
8
1
0
LINE
5
223
100
AcDbEntity
8
1
100
AcDbLine
6
CONTINUOUS
62
1
10
-118.332017
20
920.986350
11
-118.050767
21
920.986350
0
LINE
5
224
100
AcDbEntity
8
1
100
AcDbLine
6
CONTINUOUS
62
1
10
-119.332017
20
921.361350
11
-119.332017
21
920.611350
0
POLYLINE
5
225
100
AcDbEntity
8
1
6
CONTINUOUS
62
1
100
AcDb2dPolyline
66
1
10
0.0
20
0.0
30
0.0
70
0
0
VERTEX
5
226
100
AcDbEntity
8
1
100
AcDbVertex
100
AcDb2dVertex
62
1
10
-119.332017
20
921.361350
0
VERTEX
5
227
100
AcDbEntity
8
1
100
AcDbVertex
100
AcDb2dVertex
62
1
10
-119.207017
20
921.361350
0
VERTEX
5
228
100
AcDbEntity
8
1
100
AcDbVertex
100
AcDb2dVertex
62
1
10
-119.113267
20
921.330100
0
VERTEX
5
229
100
AcDbEntity
8
1
100
AcDbVertex
100
AcDb2dVertex
62
1
10
-119.082017
20
921.298850
0
VERTEX
5
22a
100
AcDbEntity
8
1
100
AcDbVertex
100
AcDb2dVertex
62
1
10
-119.050767
20
921.205100
0
VERTEX
5
22b
100
AcDbEntity
8
1
100
AcDbVertex
100
AcDb2dVertex
62
1
10
-119.050767
20
921.111350
0
VERTEX
5
22c
100
AcDbEntity
8
1
100
AcDbVertex
100
AcDb2dVertex
62
1
10
-119.082017
20
921.048850
0
VERTEX
5
22d
100
AcDbEntity
8
1
100
AcDbVertex
100
AcDb2dVertex
62
1
10
-119.175767
20
920.986350
0
VERTEX
5
22e
100
AcDbEntity
8
1
100
AcDbVertex
100
AcDb2dVertex
62
1
10
-119.332017
20
920.986350
0
SEQEND
5
22f
100
AcDbEntity
8
1
0
POLYLINE
5
230
100
AcDbEntity
8
1
6
CONTINUOUS
62
1
100
AcDb2dPolyline
66
1
10
0.0
20
0.0
30
0.0
70
0
0
VERTEX
5
231
100
AcDbEntity
8
1
100
AcDbVertex
100
AcDb2dVertex
62
1
10
-119.175767
20
920.986350
0
VERTEX
5
232
100
AcDbEntity
8
1
100
AcDbVertex
100
AcDb2dVertex
62
1
10
-119.113267
20
920.955100
0
VERTEX
5
233
100
AcDbEntity
8
1
100
AcDbVertex
100
AcDb2dVertex
62
1
10
-119.082017
20
920.892600
0
VERTEX
5
234
100
AcDbEntity
8
1
100
AcDbVertex
100
AcDb2dVertex
62
1
10
-119.082017
20
920.673850
0
VERTEX
5
235
100
AcDbEntity
8
1
100
AcDbVertex
100
AcDb2dVertex
62
1
10
-119.050767
20
920.611350
0
VERTEX
5
236
100
AcDbEntity
8
1
100
AcDbVertex
100
AcDb2dVertex
62
1
10
-119.019517
20
920.611350
0
VERTEX
5
237
100
AcDbEntity
8
1
100
AcDbVertex
100
AcDb2dVertex
62
1
10
-118.988267
20
920.673850
0
SEQEND
5
238
100
AcDbEntity
8
1
0
POLYLINE
5
239
100
AcDbEntity
8
1
6
CONTINUOUS
62
1
100
AcDb2dPolyline
66
1
10
0.0
20
0.0
30
0.0
70
0
0
VERTEX
5
23a
100
AcDbEntity
8
1
100
AcDbVertex
100
AcDb2dVertex
62
1
10
-120.332017
20
920.611350
0
VERTEX
5
23b
100
AcDbEntity
8
1
100
AcDbVertex
100
AcDb2dVertex
62
1
10
-120.332017
20
921.361350
0
VERTEX
5
23c
100
AcDbEntity
8
1
100
AcDbVertex
100
AcDb2dVertex
62
1
10
-120.175767
20
920.611350
0
VERTEX
5
23d
100
AcDbEntity
8
1
100
AcDbVertex
100
AcDb2dVertex
62
1
10
-120.019517
20
921.361350
0
VERTEX
5
23e
100
AcDbEntity
8
1
100
AcDbVertex
100
AcDb2dVertex
62
1
10
-120.019517
20
920.611350
0
SEQEND
5
23f
100
AcDbEntity
8
1
0
POLYLINE
5
240
100
AcDbEntity
8
1
6
CONTINUOUS
62
1
100
AcDb2dPolyline
66
1
10
0.0
20
0.0
30
0.0
70
0
0
VERTEX
5
241
100
AcDbEntity
8
1
100
AcDbVertex
100
AcDb2dVertex
62
1
10
-119.519517
20
921.361350
0
VERTEX
5
242
100
AcDbEntity
8
1
100
AcDbVertex
100
AcDb2dVertex
62
1
10
-119.832017
20
921.361350
0
VERTEX
5
243
100
AcDbEntity
8
1
100
AcDbVertex
100
AcDb2dVertex
62
1
10
-119.832017
20
920.611350
0
VERTEX
5
244
100
AcDbEntity
8
1
100
AcDbVertex
100
AcDb2dVertex
62
1
10
-119.488267
20
920.611350
0
SEQEND
5
245
100
AcDbEntity
8
1
0
LINE
5
246
100
AcDbEntity
8
1
100
AcDbLine
6
CONTINUOUS
62
1
10
-119.832017
20
920.986350
11
-119.550767
21
920.986350
0
POLYLINE
5
247
100
AcDbEntity
8
1
6
CONTINUOUS
62
1
100
AcDb2dPolyline
66
1
10
0.0
20
0.0
30
0.0
70
0
0
VERTEX
5
248
100
AcDbEntity
8
1
100
AcDbVertex
100
AcDb2dVertex
62
1
10
-118.550767
20
921.205100
0
VERTEX
5
249
100
AcDbEntity
8
1
100
AcDbVertex
100
AcDb2dVertex
62
1
10
-118.582017
20
921.298850
0
VERTEX
5
24a
100
AcDbEntity
8
1
100
AcDbVertex
100
AcDb2dVertex
62
1
10
-118.644517
20
921.361350
0
VERTEX
5
24b
100
AcDbEntity
8
1
100
AcDbVertex
100
AcDb2dVertex
62
1
10
-118.738267
20
921.361350
0
VERTEX
5
24c
100
AcDbEntity
8
1
100
AcDbVertex
100
AcDb2dVertex
62
1
10
-118.800767
20
921.298850
0
VERTEX
5
24d
100
AcDbEntity
8
1
100
AcDbVertex
100
AcDb2dVertex
62
1
10
-118.832017
20
921.236350
0
VERTEX
5
24e
100
AcDbEntity
8
1
100
AcDbVertex
100
AcDb2dVertex
62
1
10
-118.863267
20
921.080100
0
VERTEX
5
24f
100
AcDbEntity
8
1
100
AcDbVertex
100
AcDb2dVertex
62
1
10
-118.863267
20
920.892600
0
VERTEX
5
250
100
AcDbEntity
8
1
100
AcDbVertex
100
AcDb2dVertex
62
1
10
-118.832017
20
920.736350
0
VERTEX
5
251
100
AcDbEntity
8
1
100
AcDbVertex
100
AcDb2dVertex
62
1
10
-118.800767
20
920.673850
0
VERTEX
5
252
100
AcDbEntity
8
1
100
AcDbVertex
100
AcDb2dVertex
62
1
10
-118.738267
20
920.611350
0
VERTEX
5
253
100
AcDbEntity
8
1
100
AcDbVertex
100
AcDb2dVertex
62
1
10
-118.644517
20
920.611350
0
VERTEX
5
254
100
AcDbEntity
8
1
100
AcDbVertex
100
AcDb2dVertex
62
1
10
-118.582017
20
920.673850
0
VERTEX
5
255
100
AcDbEntity
8
1
100
AcDbVertex
100
AcDb2dVertex
62
1
10
-118.550767
20
920.736350
0
SEQEND
5
256
100
AcDbEntity
8
1
0
LINE
5
257
100
AcDbEntity
8
1
100
AcDbLine
6
CONTINUOUS
62
1
10
-118.613267
20
920.955100
11
-118.488267
21
920.955100
0
LINE
5
258
100
AcDbEntity
8
1
100
AcDbLine
6
CONTINUOUS
62
1
10
-118.550767
20
920.955100
11
-118.550767
21
920.611350
0
POLYLINE
5
259
100
AcDbEntity
8
1
6
CONTINUOUS
62
1
100
AcDb2dPolyline
66
1
10
0.0
20
0.0
30
0.0
70
0
0
VERTEX
5
25a
100
AcDbEntity
8
1
100
AcDbVertex
100
AcDb2dVertex
62
1
10
-120.519517
20
921.361350
0
VERTEX
5
25b
100
AcDbEntity
8
1
100
AcDbVertex
100
AcDb2dVertex
62
1
10
-120.832017
20
921.361350
0
VERTEX
5
25c
100
AcDbEntity
8
1
100
AcDbVertex
100
AcDb2dVertex
62
1
10
-120.832017
20
920.611350
0
VERTEX
5
25d
100
AcDbEntity
8
1
100
AcDbVertex
100
AcDb2dVertex
62
1
10
-120.488267
20
920.611350
0
SEQEND
5
25e
100
AcDbEntity
8
1
0
LINE
5
25f
100
AcDbEntity
8
1
100
AcDbLine
6
CONTINUOUS
62
1
10
-120.832017
20
920.986350
11
-120.550767
21
920.986350
0
ARC
5
260
100
AcDbEntity
8
0
100
AcDbCircle
6
CONTINUOUS
62
5
10
-116.817027
20
929.681350
40
0.250000
100
AcDbArc
50
-32.835990
51
130.534498
0
ARC
5
261
100
AcDbEntity
8
0
100
AcDbCircle
6
CONTINUOUS
62
5
10
-116.686967
20
929.791351
40
0.080000
100
AcDbArc
50
0.000000
51
90.000000
0
ARC
5
262
100
AcDbEntity
8
0
100
AcDbCircle
6
CONTINUOUS
62
5
10
-116.367027
20
930.101350
40
0.060000
100
AcDbArc
50
0.000000
51
89.999999
0
LINE
5
263
100
AcDbEntity
8
0
100
AcDbLine
6
CONTINUOUS
62
5
10
-116.606966
20
928.761349
11
-116.567027
21
928.761349
0
LINE
5
264
100
AcDbEntity
8
0
100
AcDbLine
6
CONTINUOUS
62
5
10
-116.686967
20
929.871350
11
-120.727056
21
929.871350
0
LINE
5
265
100
AcDbEntity
8
0
100
AcDbLine
6
CONTINUOUS
62
5
10
-116.567027
20
929.931350
11
-120.847026
21
929.931350
0
LINE
5
266
100
AcDbEntity
8
0
100
AcDbLine
6
CONTINUOUS
62
5
10
-116.567027
20
930.131350
11
-120.847026
21
930.131350
0
LINE
5
267
100
AcDbEntity
8
0
100
AcDbLine
6
CONTINUOUS
62
5
10
-116.367027
20
930.161351
11
-121.047026
21
930.161351
0
ARC
5
268
100
AcDbEntity
8
0
100
AcDbCircle
6
CONTINUOUS
62
5
10
-116.686967
20
926.931350
40
0.080000
100
AcDbArc
50
-89.999989
51
0.000000
0
ARC
5
269
100
AcDbEntity
8
0
100
AcDbCircle
6
CONTINUOUS
62
5
10
-116.817027
20
927.041349
40
0.250000
100
AcDbArc
50
-130.537999
51
32.836000
0
LINE
5
26a
100
AcDbEntity
8
0
100
AcDbLine
6
CONTINUOUS
62
5
10
-116.686967
20
926.851350
11
-120.727056
21
926.851350
0
LINE
5
26b
100
AcDbEntity
8
0
100
AcDbLine
6
CONTINUOUS
62
5
10
-116.567027
20
926.791349
11
-120.847026
21
926.791349
0
POLYLINE
5
26c
100
AcDbEntity
8
1
6
CONTINUOUS
62
1
100
AcDb2dPolyline
66
1
10
0.0
20
0.0
30
0.0
70
0
0
VERTEX
5
26d
100
AcDbEntity
8
1
100
AcDbVertex
100
AcDb2dVertex
62
1
10
-117.019517
20
921.205100
0
VERTEX
5
26e
100
AcDbEntity
8
1
100
AcDbVertex
100
AcDb2dVertex
62
1
10
-117.050767
20
921.298850
0
VERTEX
5
26f
100
AcDbEntity
8
1
100
AcDbVertex
100
AcDb2dVertex
62
1
10
-117.113267
20
921.361350
0
VERTEX
5
270
100
AcDbEntity
8
1
100
AcDbVertex
100
AcDb2dVertex
62
1
10
-117.207017
20
921.361350
0
VERTEX
5
271
100
AcDbEntity
8
1
100
AcDbVertex
100
AcDb2dVertex
62
1
10
-117.300767
20
921.267600
0
VERTEX
5
272
100
AcDbEntity
8
1
100
AcDbVertex
100
AcDb2dVertex
62
1
10
-117.332017
20
921.111350
0
VERTEX
5
273
100
AcDbEntity
8
1
100
AcDbVertex
100
AcDb2dVertex
62
1
10
-117.332017
20
920.861350
0
VERTEX
5
274
100
AcDbEntity
8
1
100
AcDbVertex
100
AcDb2dVertex
62
1
10
-117.300767
20
920.705100
0
VERTEX
5
275
100
AcDbEntity
8
1
100
AcDbVertex
100
AcDb2dVertex
62
1
10
-117.207017
20
920.611350
0
VERTEX
5
276
100
AcDbEntity
8
1
100
AcDbVertex
100
AcDb2dVertex
62
1
10
-117.113267
20
920.611350
0
VERTEX
5
277
100
AcDbEntity
8
1
100
AcDbVertex
100
AcDb2dVertex
62
1
10
-117.050767
20
920.673850
0
VERTEX
5
278
100
AcDbEntity
8
1
100
AcDbVertex
100
AcDb2dVertex
62
1
10
-116.988267
20
920.830100
0
SEQEND
5
279
100
AcDbEntity
8
1
0
LINE
5
27a
100
AcDbEntity
8
1
100
AcDbLine
6
CONTINUOUS
62
1
10
-116.832017
20
921.361350
11
-116.675767
21
920.955100
0
POLYLINE
5
27b
100
AcDbEntity
8
1
6
CONTINUOUS
62
1
100
AcDb2dPolyline
66
1
10
0.0
20
0.0
30
0.0
70
0
0
VERTEX
5
27c
100
AcDbEntity
8
1
100
AcDbVertex
100
AcDb2dVertex
62
1
10
-116.519517
20
921.361350
0
VERTEX
5
27d
100
AcDbEntity
8
1
100
AcDbVertex
100
AcDb2dVertex
62
1
10
-116.675767
20
920.955100
0
VERTEX
5
27e
100
AcDbEntity
8
1
100
AcDbVertex
100
AcDb2dVertex
62
1
10
-116.675767
20
920.611350
0
SEQEND
5
27f
100
AcDbEntity
8
1
0
ARC
5
280
100
AcDbEntity
8
0
100
AcDbCircle
6
CONTINUOUS
62
5
10
-116.367027
20
926.621350
40
0.060000
100
AcDbArc
50
-89.999989
51
0.000000
0
LINE
5
281
100
AcDbEntity
8
0
100
AcDbLine
6
CONTINUOUS
62
5
10
-116.567027
20
926.591349
11
-120.847026
21
926.591349
0
LINE
5
282
100
AcDbEntity
8
0
100
AcDbLine
6
CONTINUOUS
62
5
10
-116.367027
20
926.561349
11
-121.047026
21
926.561349
0
LINE
5
283
100
AcDbEntity
8
1
100
AcDbLine
6
CONTINUOUS
62
5
10
-116.530904
20
918.426414
11
-116.628135
21
918.440233
0
LINE
5
284
100
AcDbEntity
8
1
100
AcDbLine
6
CONTINUOUS
62
5
10
-116.628136
20
918.440233
11
-116.641965
21
918.537475
0
LINE
5
285
100
AcDbEntity
8
1
100
AcDbLine
6
CONTINUOUS
62
5
10
-116.641965
20
918.537462
11
-116.739779
21
918.546190
0
LINE
5
286
100
AcDbEntity
8
1
100
AcDbLine
6
CONTINUOUS
62
5
10
-116.758682
20
918.642563
11
-116.856821
21
918.646152
0
LINE
5
287
100
AcDbEntity
8
1
100
AcDbLine
6
CONTINUOUS
62
5
10
-116.739778
20
918.546187
11
-116.758681
21
918.642563
0
LINE
5
288
100
AcDbEntity
8
1
100
AcDbLine
6
CONTINUOUS
62
5
10
-116.522176
20
918.328586
11
-116.530905
21
918.426414
0
LINE
5
289
100
AcDbEntity
8
1
100
AcDbLine
6
CONTINUOUS
62
5
10
-116.425809
20
918.309689
11
-116.522176
21
918.328586
0
LINE
5
28a
100
AcDbEntity
8
1
100
AcDbLine
6
CONTINUOUS
62
5
10
-116.422215
20
918.211546
11
-116.425809
21
918.309689
0
LINE
5
28b
100
AcDbEntity
8
1
100
AcDbLine
6
CONTINUOUS
62
5
10
-116.326963
20
918.187630
11
-116.422216
21
918.211544
0
LINE
5
28c
100
AcDbEntity
8
1
100
AcDbLine
6
CONTINUOUS
62
5
10
-117.007809
20
918.833725
11
-117.105783
21
918.827035
0
LINE
5
28d
100
AcDbEntity
8
1
100
AcDbLine
6
CONTINUOUS
62
5
10
-116.856821
20
918.646151
11
-116.880740
21
918.741403
0
LINE
5
28e
100
AcDbEntity
8
1
100
AcDbLine
6
CONTINUOUS
62
5
10
-116.880741
20
918.741403
11
-116.978935
21
918.739853
0
LINE
5
28f
100
AcDbEntity
8
1
100
AcDbLine
6
CONTINUOUS
62
5
10
-116.978934
20
918.739842
11
-117.007809
21
918.833726
0
LINE
5
290
100
AcDbEntity
8
1
100
AcDbLine
6
CONTINUOUS
62
5
10
-117.227016
20
916.361344
11
-116.907017
21
916.361350
0
LINE
5
291
100
AcDbEntity
8
1
100
AcDbLine
6
CONTINUOUS
62
5
10
-116.678574
20
915.817827
11
-116.027018
21
916.361351
0
LINE
5
292
100
AcDbEntity
8
1
100
AcDbLine
6
CONTINUOUS
62
5
10
-117.227018
20
916.361342
11
-116.678574
21
915.817826
0
LINE
5
293
100
AcDbEntity
8
1
100
AcDbLine
6
CONTINUOUS
62
1
10
-117.082017
20
907.721350
11
-116.769517
21
906.971350
0
LINE
5
294
100
AcDbEntity
8
1
100
AcDbLine
6
CONTINUOUS
62
1
10
-116.769517
20
907.721350
11
-117.082017
21
906.971350
0
LINE
5
295
100
AcDbEntity
8
1
100
AcDbLine
6
CONTINUOUS
62
1
10
-116.582017
20
907.721350
11
-116.269517
21
907.721350
0
LINE
5
296
100
AcDbEntity
8
1
100
AcDbLine
6
CONTINUOUS
62
1
10
-116.425767
20
907.721350
11
-116.425767
21
906.971350
0
LINE
5
297
100
AcDbEntity
8
1
100
AcDbLine
6
CONTINUOUS
62
5
10
-117.105783
20
913.895664
11
-117.007796
21
913.888978
0
LINE
5
298
100
AcDbEntity
8
1
100
AcDbLine
6
CONTINUOUS
62
5
10
-116.880736
20
913.981296
11
-116.856816
21
914.076548
0
LINE
5
299
100
AcDbEntity
8
1
100
AcDbLine
6
CONTINUOUS
62
5
10
-116.978928
20
913.982848
11
-116.880734
21
913.981295
0
LINE
5
29a
100
AcDbEntity
8
1
100
AcDbLine
6
CONTINUOUS
62
5
10
-117.007797
20
913.888978
11
-116.978928
21
913.982850
0
LINE
5
29b
100
AcDbEntity
8
1
100
AcDbLine
6
CONTINUOUS
62
5
10
-116.856821
20
914.076549
11
-116.758677
21
914.080141
0
LINE
5
29c
100
AcDbEntity
8
1
100
AcDbLine
6
CONTINUOUS
62
5
10
-116.422215
20
914.511155
11
-116.326956
21
914.535070
0
LINE
5
29d
100
AcDbEntity
8
1
100
AcDbLine
6
CONTINUOUS
62
5
10
-116.425803
20
914.413012
11
-116.422214
21
914.511155
0
LINE
5
29e
100
AcDbEntity
8
1
100
AcDbLine
6
CONTINUOUS
62
5
10
-116.522177
20
914.394115
11
-116.425804
21
914.413012
0
LINE
5
29f
100
AcDbEntity
8
1
100
AcDbLine
6
CONTINUOUS
62
5
10
-116.758678
20
914.080140
11
-116.739773
21
914.176510
0
LINE
5
2a0
100
AcDbEntity
8
1
100
AcDbLine
6
CONTINUOUS
62
5
10
-116.739780
20
914.176511
11
-116.641952
21
914.185227
0
LINE
5
2a1
100
AcDbEntity
8
1
100
AcDbLine
6
CONTINUOUS
62
5
10
-116.530892
20
914.296288
11
-116.522176
21
914.394114
0
LINE
5
2a2
100
AcDbEntity
8
1
100
AcDbLine
6
CONTINUOUS
62
5
10
-116.628129
20
914.282456
11
-116.530892
21
914.296290
0
LINE
5
2a3
100
AcDbEntity
8
1
100
AcDbLine
6
CONTINUOUS
62
5
10
-116.641952
20
914.185227
11
-116.628123
21
914.282456
0
ARC
5
2a4
100
AcDbEntity
8
1
100
AcDbCircle
6
CONTINUOUS
62
5
10
-118.707017
20
916.361350
40
2.400000
100
AcDbArc
50
-120.000002
51
-45.000001
0
LINE
5
2a5
100
AcDbEntity
8
1
100
AcDbLine
6
CONTINUOUS
62
5
10
-121.107017
20
906.161350
11
-116.307017
21
906.161350
0
LINE
5
2a6
100
AcDbEntity
8
0
100
AcDbLine
6
CONTINUOUS
62
5
10
-121.047018
20
906.111350
11
-116.367016
21
906.111350
0
LINE
5
2a7
100
AcDbEntity
8
1
100
AcDbLine
6
CONTINUOUS
62
5
10
-117.434224
20
915.088553
11
-117.009958
21
914.664292
0
ARC
5
2a8
100
AcDbEntity
8
1
100
AcDbCircle
6
CONTINUOUS
62
5
10
-118.707017
20
916.361350
40
2.400000
100
AcDbArc
50
0.000000
51
74.999998
0
ARC
5
2a9
100
AcDbEntity
8
1
100
AcDbCircle
6
CONTINUOUS
62
5
10
-118.707017
20
916.361350
40
1.800000
100
AcDbArc
50
0.000000
51
74.999998
0
CIRCLE
5
2aa
100
AcDbEntity
8
1
100
AcDbCircle
6
CONTINUOUS
62
5
10
-118.707017
20
916.361350
40
2.920000
0
LINE
5
2ab
100
AcDbEntity
8
0
100
AcDbLine
6
CONTINUOUS
62
5
10
-116.606966
20
927.961349
11
-116.567027
21
927.961349
0
LINE
5
2ac
100
AcDbEntity
8
0
100
AcDbLine
6
CONTINUOUS
62
5
10
-116.606966
20
929.791351
11
-116.606966
21
926.931350
0
POLYLINE
5
2ad
100
AcDbEntity
8
1
6
CONTINUOUS
62
5
100
AcDb2dPolyline
66
1
10
0.0
20
0.0
30
0.0
70
1
0
VERTEX
5
2ae
100
AcDbEntity
8
1
100
AcDbVertex
100
AcDb2dVertex
62
5
10
-116.817016
20
929.651349
0
VERTEX
5
2af
100
AcDbEntity
8
1
100
AcDbVertex
100
AcDb2dVertex
62
5
10
-120.597016
20
929.651349
0
VERTEX
5
2b0
100
AcDbEntity
8
1
100
AcDbVertex
100
AcDb2dVertex
62
5
10
-120.597016
20
927.071349
0
VERTEX
5
2b1
100
AcDbEntity
8
1
100
AcDbVertex
100
AcDb2dVertex
62
5
10
-116.817016
20
927.071349
0
SEQEND
5
2b2
100
AcDbEntity
8
1
0
LINE
5
2b3
100
AcDbEntity
8
0
100
AcDbLine
6
CONTINUOUS
62
5
10
-116.567027
20
926.591349
11
-116.567027
21
930.131350
0
CIRCLE
5
2b4
100
AcDbEntity
8
1
100
AcDbCircle
6
CONTINUOUS
62
5
10
-118.707017
20
916.361350
40
4.000000
0
LINE
5
2b5
100
AcDbEntity
8
1
100
AcDbLine
6
DOT2
62
5
10
-102.707017
20
936.570105
11
-102.707017
21
935.425983
0
ARC
5
2b6
100
AcDbEntity
8
1
100
AcDbCircle
6
CONTINUOUS
62
5
10
-97.307017
20
911.361350
40
0.200000
100
AcDbArc
50
-89.999999
51
0.000000
0
LINE
5
2b7
100
AcDbEntity
8
1
100
AcDbLine
6
CONTINUOUS
62
5
10
-97.107017
20
911.361350
11
-97.107017
21
921.361350
0
ARC
5
2b8
100
AcDbEntity
8
1
100
AcDbCircle
6
CONTINUOUS
62
5
10
-97.307017
20
921.361350
40
0.200000
100
AcDbArc
50
0.000000
51
89.999999
0
LINE
5
2b9
100
AcDbEntity
8
1
100
AcDbLine
6
CONTINUOUS
62
5
10
-97.307017
20
921.561350
11
-110.107017
21
921.561350
0
ARC
5
2ba
100
AcDbEntity
8
1
100
AcDbCircle
6
CONTINUOUS
62
5
10
-110.107017
20
921.361350
40
0.200000
100
AcDbArc
50
89.999999
51
179.999998
0
LINE
5
2bb
100
AcDbEntity
8
1
100
AcDbLine
6
CONTINUOUS
62
5
10
-110.307017
20
921.361350
11
-110.307017
21
911.361350
0
ARC
5
2bc
100
AcDbEntity
8
1
100
AcDbCircle
6
CONTINUOUS
62
5
10
-110.107017
20
911.361350
40
0.200000
100
AcDbArc
50
179.999998
51
-89.999999
0
LINE
5
2bd
100
AcDbEntity
8
1
100
AcDbLine
6
CONTINUOUS
62
5
10
-110.107017
20
911.161350
11
-97.307017
21
911.161350
0
POLYLINE
5
2be
100
AcDbEntity
8
1
6
CONTINUOUS
62
5
100
AcDb2dPolyline
66
1
10
0.0
20
0.0
30
0.0
70
0
0
VERTEX
5
2bf
100
AcDbEntity
8
1
100
AcDbVertex
100
AcDb2dVertex
62
5
10
-88.027017
20
890.861350
0
VERTEX
5
2c0
100
AcDbEntity
8
1
100
AcDbVertex
100
AcDb2dVertex
62
5
10
-88.027017
20
894.161350
0
VERTEX
5
2c1
100
AcDbEntity
8
1
100
AcDbVertex
100
AcDb2dVertex
62
5
10
-88.427017
20
894.161350
0
VERTEX
5
2c2
100
AcDbEntity
8
1
100
AcDbVertex
100
AcDb2dVertex
62
5
10
-88.427017
20
893.661350
0
SEQEND
5
2c3
100
AcDbEntity
8
1
0
LINE
5
2c4
100
AcDbEntity
8
1
100
AcDbLine
6
CONTINUOUS
62
5
10
-113.004002
20
892.858335
11
-112.410032
21
892.264365
0
LINE
5
2c5
100
AcDbEntity
8
1
100
AcDbLine
6
CONTINUOUS
62
5
10
-112.410032
20
892.858335
11
-113.004002
21
892.264365
0
CIRCLE
5
2c6
100
AcDbEntity
8
1
100
AcDbCircle
6
CONTINUOUS
62
5
10
-112.707017
20
892.561350
40
0.940000
0
LINE
5
2c7
100
AcDbEntity
8
1
100
AcDbLine
6
DOT2
62
5
10
-97.707017
20
891.361350
11
-97.707017
21
889.761350
0
LINE
5
2c8
100
AcDbEntity
8
0
100
AcDbLine
6
DOT2
62
5
10
-97.707017
20
890.761350
11
-97.707017
21
887.961350
0
LINE
5
2c9
100
AcDbEntity
8
0
100
AcDbLine
6
CONTINUOUS
62
5
10
-118.557017
20
903.621250
11
-118.537006
21
903.621250
0
LINE
5
2ca
100
AcDbEntity
8
0
100
AcDbLine
6
CONTINUOUS
62
5
10
-118.537006
20
904.201349
11
-118.557017
21
904.201349
0
LINE
5
2cb
100
AcDbEntity
8
0
100
AcDbLine
6
CONTINUOUS
62
5
10
-118.557017
20
904.041248
11
-118.537006
21
904.041248
0
LINE
5
2cc
100
AcDbEntity
8
0
100
AcDbLine
6
CONTINUOUS
62
5
10
-118.877016
20
903.621250
11
-118.537006
21
903.621250
0
LINE
5
2cd
100
AcDbEntity
8
0
100
AcDbLine
6
CONTINUOUS
62
5
10
-118.877016
20
904.041248
11
-118.857017
21
904.041248
0
LINE
5
2ce
100
AcDbEntity
8
0
100
AcDbLine
6
DASHED
62
5
10
-118.557017
20
902.381347
11
-118.857017
21
902.381347
0
ARC
5
2cf
100
AcDbEntity
8
0
100
AcDbCircle
6
CONTINUOUS
62
5
10
-118.707017
20
904.361350
40
1.500000
100
AcDbArc
50
-119.512999
51
-95.739009
0
ARC
5
2d0
100
AcDbEntity
8
0
100
AcDbCircle
6
CONTINUOUS
62
5
10
-118.707017
20
904.361350
40
1.500000
100
AcDbArc
50
-84.260989
51
-60.486999
0
LINE
5
2d1
100
AcDbEntity
8
0
100
AcDbLine
6
CONTINUOUS
62
5
10
-118.557017
20
904.361350
11
-118.537006
21
904.361350
0
LINE
5
2d2
100
AcDbEntity
8
0
100
AcDbLine
6
CONTINUOUS
62
5
10
-118.557017
20
904.361350
11
-118.857017
21
904.361350
0
LINE
5
2d3
100
AcDbEntity
8
0
100
AcDbLine
6
CONTINUOUS
62
5
10
-118.857017
20
904.551349
11
-118.877016
21
904.551349
0
LINE
5
2d4
100
AcDbEntity
8
0
100
AcDbLine
6
CONTINUOUS
62
5
10
-121.047018
20
902.611349
11
-116.367016
21
902.611349
0
LINE
5
2d5
100
AcDbEntity
8
0
100
AcDbLine
6
CONTINUOUS
62
5
10
-121.107017
20
902.561349
11
-116.307017
21
902.561349
0
LINE
5
2d6
100
AcDbEntity
8
0
100
AcDbLine
6
CONTINUOUS
62
5
10
-97.935491
20
847.844331
11
-98.035491
21
847.944331
0
LINE
5
2d7
100
AcDbEntity
8
0
100
AcDbLine
6
CONTINUOUS
62
5
10
-97.935491
20
847.064350
11
-97.935491
21
847.844331
0
ARC
5
2d8
100
AcDbEntity
8
0
100
AcDbCircle
6
CONTINUOUS
62
5
10
-98.075501
20
848.045571
40
0.040000
100
AcDbArc
50
0.000010
51
88.191009
0
ARC
5
2d9
100
AcDbEntity
8
0
100
AcDbCircle
6
CONTINUOUS
62
5
10
-98.075501
20
844.643080
40
0.040000
100
AcDbArc
50
-88.191096
51
0.000010
0
LINE
5
2da
100
AcDbEntity
8
0
100
AcDbLine
6
CONTINUOUS
62
5
10
-97.935491
20
844.844331
11
-98.035491
21
844.744331
0
LINE
5
2db
100
AcDbEntity
8
0
100
AcDbLine
6
CONTINUOUS
62
5
10
-98.035501
20
844.643080
11
-98.035501
21
848.045571
0
LINE
5
2dc
100
AcDbEntity
8
0
100
AcDbLine
6
CONTINUOUS
62
5
10
-97.935491
20
844.844331
11
-97.935491
21
847.064350
0
LINE
5
2dd
100
AcDbEntity
8
0
100
AcDbLine
6
CONTINUOUS
62
5
10
-98.074241
20
848.085550
11
-98.935501
21
848.112749
0
POLYLINE
5
2de
100
AcDbEntity
8
0
6
CONTINUOUS
62
5
100
AcDb2dPolyline
66
1
10
0.0
20
0.0
30
0.0
70
1
0
VERTEX
5
2df
100
AcDbEntity
8
0
100
AcDbVertex
100
AcDb2dVertex
62
5
10
-98.935501
20
844.575905
0
VERTEX
5
2e0
100
AcDbEntity
8
0
100
AcDbVertex
100
AcDb2dVertex
62
5
10
-98.074241
20
844.603100
0
SEQEND
5
2e1
100
AcDbEntity
8
0
0
CIRCLE
5
2e2
100
AcDbEntity
8
1
100
AcDbCircle
6
DOT2
62
5
10
-103.335501
20
850.344327
40
0.400000
0
CIRCLE
5
2e3
100
AcDbEntity
8
1
100
AcDbCircle
6
CONTINUOUS
62
5
10
-103.335501
20
850.344327
40
0.300000
0
CIRCLE
5
2e4
100
AcDbEntity
8
1
100
AcDbCircle
6
DOT2
62
5
10
-113.435501
20
847.544327
40
0.400000
0
CIRCLE
5
2e5
100
AcDbEntity
8
1
100
AcDbCircle
6
CONTINUOUS
62
5
10
-113.435501
20
847.544327
40
0.300000
0
CIRCLE
5
2e6
100
AcDbEntity
8
1
100
AcDbCircle
6
DASHED
62
5
10
-113.435501
20
847.544327
40
0.715000
0
CIRCLE
5
2e7
100
AcDbEntity
8
1
100
AcDbCircle
6
DOT2
62
5
10
-120.435501
20
847.544327
40
0.400000
0
CIRCLE
5
2e8
100
AcDbEntity
8
1
100
AcDbCircle
6
CONTINUOUS
62
5
10
-120.435501
20
847.544327
40
0.300000
0
CIRCLE
5
2e9
100
AcDbEntity
8
1
100
AcDbCircle
6
DASHED
62
5
10
-120.435501
20
847.544327
40
0.715000
0
ARC
5
2ea
100
AcDbEntity
8
0
100
AcDbCircle
6
CONTINUOUS
62
5
10
-95.963172
20
888.561350
40
0.200000
100
AcDbArc
50
-89.999999
51
-14.036243
0
LINE
5
2eb
100
AcDbEntity
8
0
100
AcDbLine
6
CONTINUOUS
62
5
10
-95.963172
20
888.361350
11
-99.450861
21
888.361350
0
ARC
5
2ec
100
AcDbEntity
8
0
100
AcDbCircle
6
CONTINUOUS
62
5
10
-99.450861
20
888.561350
40
0.200000
100
AcDbArc
50
-165.963755
51
-89.999999
0
POLYLINE
5
2ed
100
AcDbEntity
8
0
6
CONTINUOUS
62
5
100
AcDb2dPolyline
66
1
10
0.0
20
0.0
30
0.0
70
0
0
VERTEX
5
2ee
100
AcDbEntity
8
0
100
AcDbVertex
100
AcDb2dVertex
62
5
10
-99.644890
20
888.512843
0
VERTEX
5
2ef
100
AcDbEntity
8
0
100
AcDbVertex
100
AcDb2dVertex
62
5
10
-100.107017
20
890.361350
0
VERTEX
5
2f0
100
AcDbEntity
8
0
100
AcDbVertex
100
AcDb2dVertex
62
5
10
-95.307017
20
890.361350
0
VERTEX
5
2f1
100
AcDbEntity
8
0
100
AcDbVertex
100
AcDb2dVertex
62
5
10
-95.769143
20
888.512843
0
SEQEND
5
2f2
100
AcDbEntity
8
0
0
LINE
5
2f3
100
AcDbEntity
8
0
100
AcDbLine
6
CONTINUOUS
62
5
10
-118.537006
20
903.621250
11
-118.537006
21
905.101349
0
LINE
5
2f4
100
AcDbEntity
8
0
100
AcDbLine
6
CONTINUOUS
62
5
10
-118.877016
20
903.621250
11
-118.877016
21
905.101349
0
LINE
5
2f5
100
AcDbEntity
8
0
100
AcDbLine
6
CONTINUOUS
62
5
10
-116.367016
20
902.611349
11
-116.367016
21
906.111350
0
LINE
5
2f6
100
AcDbEntity
8
0
100
AcDbLine
6
CONTINUOUS
62
5
10
-116.307017
20
902.561349
11
-116.307017
21
906.161350
0
ARC
5
2f7
100
AcDbEntity
8
0
100
AcDbCircle
6
CONTINUOUS
62
5
10
-118.707017
20
904.361350
40
1.500000
100
AcDbArc
50
-51.909990
51
84.260999
0
CIRCLE
5
2f8
100
AcDbEntity
8
0
100
AcDbCircle
6
CONTINUOUS
62
5
10
-118.707017
20
904.361350
40
1.500000
0
LINE
5
2f9
100
AcDbEntity
8
0
100
AcDbLine
6
DASHED
62
5
10
-118.557017
20
902.381347
11
-118.557017
21
906.341149
0
LINE
5
2fa
100
AcDbEntity
8
0
100
AcDbLine
6
DASHED
62
5
10
-118.857017
20
902.381347
11
-118.857017
21
906.341149
0
LINE
5
2fb
100
AcDbEntity
8
0
100
AcDbLine
6
CONTINUOUS
62
5
10
-118.557017
20
905.101349
11
-118.537006
21
905.101349
0
LINE
5
2fc
100
AcDbEntity
8
0
100
AcDbLine
6
CONTINUOUS
62
5
10
-118.537006
20
904.861350
11
-118.557017
21
904.861350
0
LINE
5
2fd
100
AcDbEntity
8
0
100
AcDbLine
6
CONTINUOUS
62
5
10
-118.877016
20
905.101349
11
-118.557017
21
905.101349
0
LINE
5
2fe
100
AcDbEntity
8
0
100
AcDbLine
6
CONTINUOUS
62
5
10
-121.047018
20
902.611349
11
-121.047018
21
906.111350
0
LINE
5
2ff
100
AcDbEntity
8
0
100
AcDbLine
6
CONTINUOUS
62
5
10
-121.107017
20
902.561349
11
-121.107017
21
906.161350
0
CIRCLE
5
300
100
AcDbEntity
8
1
100
AcDbCircle
6
CONTINUOUS
62
5
10
-142.607017
20
906.361350
40
0.630000
0
LINE
5
301
100
AcDbEntity
8
1
100
AcDbLine
6
CONTINUOUS
62
5
10
-142.161539
20
906.806827
11
-143.052494
21
905.915873
0
LINE
5
302
100
AcDbEntity
8
1
100
AcDbLine
6
CONTINUOUS
62
5
10
-142.352458
20
906.106792
11
-142.861575
21
906.615908
0
CIRCLE
5
303
100
AcDbEntity
8
1
100
AcDbCircle
6
CONTINUOUS
62
5
10
-152.607017
20
906.361350
40
0.630000
0
LINE
5
304
100
AcDbEntity
8
1
100
AcDbLine
6
CONTINUOUS
62
5
10
-152.161539
20
906.806827
11
-153.052494
21
905.915873
0
LINE
5
305
100
AcDbEntity
8
1
100
AcDbLine
6
CONTINUOUS
62
5
10
-152.352458
20
906.106792
11
-152.861575
21
906.615908
0
LINE
5
306
100
AcDbEntity
8
1
100
AcDbLine
6
CONTINUOUS
62
1
10
-163.082017
20
916.661350
11
-162.769517
21
916.661350
0
LINE
5
307
100
AcDbEntity
8
1
100
AcDbLine
6
CONTINUOUS
62
1
10
-162.925767
20
916.661350
11
-162.925767
21
915.911350
0
LINE
5
308
100
AcDbEntity
8
1
100
AcDbLine
6
CONTINUOUS
62
1
10
-165.582017
20
916.661350
11
-165.582017
21
915.911350
0
LINE
5
309
100
AcDbEntity
8
1
100
AcDbLine
6
CONTINUOUS
62
1
10
-165.582017
20
916.286350
11
-165.300767
21
916.286350
0
LINE
5
30a
100
AcDbEntity
8
1
100
AcDbLine
6
CONTINUOUS
62
1
10
-165.300767
20
916.661350
11
-165.300767
21
915.911350
0
POLYLINE
5
30b
100
AcDbEntity
8
1
6
CONTINUOUS
62
1
100
AcDb2dPolyline
66
1
10
0.0
20
0.0
30
0.0
70
0
0
VERTEX
5
30c
100
AcDbEntity
8
1
100
AcDbVertex
100
AcDb2dVertex
62
1
10
-164.769517
20
916.661350
0
VERTEX
5
30d
100
AcDbEntity
8
1
100
AcDbVertex
100
AcDb2dVertex
62
1
10
-165.082017
20
916.661350
0
VERTEX
5
30e
100
AcDbEntity
8
1
100
AcDbVertex
100
AcDb2dVertex
62
1
10
-165.082017
20
915.911350
0
VERTEX
5
30f
100
AcDbEntity
8
1
100
AcDbVertex
100
AcDb2dVertex
62
1
10
-164.738267
20
915.911350
0
SEQEND
5
310
100
AcDbEntity
8
1
0
LINE
5
311
100
AcDbEntity
8
1
100
AcDbLine
6
CONTINUOUS
62
1
10
-165.082017
20
916.286350
11
-164.800767
21
916.286350
0
LINE
5
312
100
AcDbEntity
8
1
100
AcDbLine
6
CONTINUOUS
62
1
10
-164.582017
20
916.661350
11
-164.582017
21
915.911350
0
POLYLINE
5
313
100
AcDbEntity
8
1
6
CONTINUOUS
62
1
100
AcDb2dPolyline
66
1
10
0.0
20
0.0
30
0.0
70
0
0
VERTEX
5
314
100
AcDbEntity
8
1
100
AcDbVertex
100
AcDb2dVertex
62
1
10
-164.582017
20
916.661350
0
VERTEX
5
315
100
AcDbEntity
8
1
100
AcDbVertex
100
AcDb2dVertex
62
1
10
-164.457017
20
916.661350
0
VERTEX
5
316
100
AcDbEntity
8
1
100
AcDbVertex
100
AcDb2dVertex
62
1
10
-164.363267
20
916.630100
0
VERTEX
5
317
100
AcDbEntity
8
1
100
AcDbVertex
100
AcDb2dVertex
62
1
10
-164.332017
20
916.598850
0
VERTEX
5
318
100
AcDbEntity
8
1
100
AcDbVertex
100
AcDb2dVertex
62
1
10
-164.300767
20
916.505100
0
VERTEX
5
319
100
AcDbEntity
8
1
100
AcDbVertex
100
AcDb2dVertex
62
1
10
-164.300767
20
916.411350
0
VERTEX
5
31a
100
AcDbEntity
8
1
100
AcDbVertex
100
AcDb2dVertex
62
1
10
-164.332017
20
916.348850
0
VERTEX
5
31b
100
AcDbEntity
8
1
100
AcDbVertex
100
AcDb2dVertex
62
1
10
-164.425767
20
916.286350
0
VERTEX
5
31c
100
AcDbEntity
8
1
100
AcDbVertex
100
AcDb2dVertex
62
1
10
-164.582017
20
916.286350
0
SEQEND
5
31d
100
AcDbEntity
8
1
0
POLYLINE
5
31e
100
AcDbEntity
8
1
6
CONTINUOUS
62
1
100
AcDb2dPolyline
66
1
10
0.0
20
0.0
30
0.0
70
0
0
VERTEX
5
31f
100
AcDbEntity
8
1
100
AcDbVertex
100
AcDb2dVertex
62
1
10
-164.425767
20
916.286350
0
VERTEX
5
320
100
AcDbEntity
8
1
100
AcDbVertex
100
AcDb2dVertex
62
1
10
-164.363267
20
916.255100
0
VERTEX
5
321
100
AcDbEntity
8
1
100
AcDbVertex
100
AcDb2dVertex
62
1
10
-164.332017
20
916.192600
0
VERTEX
5
322
100
AcDbEntity
8
1
100
AcDbVertex
100
AcDb2dVertex
62
1
10
-164.332017
20
915.973850
0
VERTEX
5
323
100
AcDbEntity
8
1
100
AcDbVertex
100
AcDb2dVertex
62
1
10
-164.300767
20
915.911350
0
VERTEX
5
324
100
AcDbEntity
8
1
100
AcDbVertex
100
AcDb2dVertex
62
1
10
-164.269517
20
915.911350
0
VERTEX
5
325
100
AcDbEntity
8
1
100
AcDbVertex
100
AcDb2dVertex
62
1
10
-164.238267
20
915.973850
0
SEQEND
5
326
100
AcDbEntity
8
1
0
POLYLINE
5
327
100
AcDbEntity
8
1
6
CONTINUOUS
62
1
100
AcDb2dPolyline
66
1
10
0.0
20
0.0
30
0.0
70
0
0
VERTEX
5
328
100
AcDbEntity
8
1
100
AcDbVertex
100
AcDb2dVertex
62
1
10
-164.082017
20
915.911350
0
VERTEX
5
329
100
AcDbEntity
8
1
100
AcDbVertex
100
AcDb2dVertex
62
1
10
-164.082017
20
916.661350
0
VERTEX
5
32a
100
AcDbEntity
8
1
100
AcDbVertex
100
AcDb2dVertex
62
1
10
-163.769517
20
915.911350
0
VERTEX
5
32b
100
AcDbEntity
8
1
100
AcDbVertex
100
AcDb2dVertex
62
1
10
-163.769517
20
916.661350
0
SEQEND
5
32c
100
AcDbEntity
8
1
0
POLYLINE
5
32d
100
AcDbEntity
8
1
6
CONTINUOUS
62
1
100
AcDb2dPolyline
66
1
10
0.0
20
0.0
30
0.0
70
0
0
VERTEX
5
32e
100
AcDbEntity
8
1
100
AcDbVertex
100
AcDb2dVertex
62
1
10
-163.269517
20
916.661350
0
VERTEX
5
32f
100
AcDbEntity
8
1
100
AcDbVertex
100
AcDb2dVertex
62
1
10
-163.582017
20
916.661350
0
VERTEX
5
330
100
AcDbEntity
8
1
100
AcDbVertex
100
AcDb2dVertex
62
1
10
-163.582017
20
915.911350
0
VERTEX
5
331
100
AcDbEntity
8
1
100
AcDbVertex
100
AcDb2dVertex
62
1
10
-163.238267
20
915.911350
0
SEQEND
5
332
100
AcDbEntity
8
1
0
LINE
5
333
100
AcDbEntity
8
1
100
AcDbLine
6
CONTINUOUS
62
1
10
-163.582017
20
916.286350
11
-163.300767
21
916.286350
0
POLYLINE
5
334
100
AcDbEntity
8
1
6
CONTINUOUS
62
1
100
AcDb2dPolyline
66
1
10
0.0
20
0.0
30
0.0
70
0
0
VERTEX
5
335
100
AcDbEntity
8
1
100
AcDbVertex
100
AcDb2dVertex
62
1
10
-165.582017
20
905.711350
0
VERTEX
5
336
100
AcDbEntity
8
1
100
AcDbVertex
100
AcDb2dVertex
62
1
10
-165.582017
20
906.461350
0
VERTEX
5
337
100
AcDbEntity
8
1
100
AcDbVertex
100
AcDb2dVertex
62
1
10
-165.269517
20
905.711350
0
VERTEX
5
338
100
AcDbEntity
8
1
100
AcDbVertex
100
AcDb2dVertex
62
1
10
-165.269517
20
906.461350
0
SEQEND
5
339
100
AcDbEntity
8
1
0
POLYLINE
5
33a
100
AcDbEntity
8
1
6
CONTINUOUS
62
1
100
AcDb2dPolyline
66
1
10
0.0
20
0.0
30
0.0
70
0
0
VERTEX
5
33b
100
AcDbEntity
8
1
100
AcDbVertex
100
AcDb2dVertex
62
1
10
-164.769517
20
906.305100
0
VERTEX
5
33c
100
AcDbEntity
8
1
100
AcDbVertex
100
AcDb2dVertex
62
1
10
-164.800767
20
906.398850
0
VERTEX
5
33d
100
AcDbEntity
8
1
100
AcDbVertex
100
AcDb2dVertex
62
1
10
-164.863267
20
906.461350
0
VERTEX
5
33e
100
AcDbEntity
8
1
100
AcDbVertex
100
AcDb2dVertex
62
1
10
-164.957017
20
906.461350
0
VERTEX
5
33f
100
AcDbEntity
8
1
100
AcDbVertex
100
AcDb2dVertex
62
1
10
-165.050767
20
906.367600
0
VERTEX
5
340
100
AcDbEntity
8
1
100
AcDbVertex
100
AcDb2dVertex
62
1
10
-165.082017
20
906.211350
0
VERTEX
5
341
100
AcDbEntity
8
1
100
AcDbVertex
100
AcDb2dVertex
62
1
10
-165.082017
20
905.961350
0
VERTEX
5
342
100
AcDbEntity
8
1
100
AcDbVertex
100
AcDb2dVertex
62
1
10
-165.050767
20
905.805100
0
VERTEX
5
343
100
AcDbEntity
8
1
100
AcDbVertex
100
AcDb2dVertex
62
1
10
-164.957017
20
905.711350
0
VERTEX
5
344
100
AcDbEntity
8
1
100
AcDbVertex
100
AcDb2dVertex
62
1
10
-164.863267
20
905.711350
0
VERTEX
5
345
100
AcDbEntity
8
1
100
AcDbVertex
100
AcDb2dVertex
62
1
10
-164.800767
20
905.773850
0
VERTEX
5
346
100
AcDbEntity
8
1
100
AcDbVertex
100
AcDb2dVertex
62
1
10
-164.738267
20
905.930100
0
SEQEND
5
347
100
AcDbEntity
8
1
0
POLYLINE
5
348
100
AcDbEntity
8
1
6
CONTINUOUS
62
1
100
AcDb2dPolyline
66
1
10
0.0
20
0.0
30
0.0
70
1
0
VERTEX
5
349
100
AcDbEntity
8
1
100
AcDbVertex
100
AcDb2dVertex
62
1
10
-164.457017
20
906.461350
0
VERTEX
5
34a
100
AcDbEntity
8
1
100
AcDbVertex
100
AcDb2dVertex
62
1
10
-164.394517
20
906.461350
0
VERTEX
5
34b
100
AcDbEntity
8
1
100
AcDbVertex
100
AcDb2dVertex
62
1
10
-164.332017
20
906.430100
0
VERTEX
5
34c
100
AcDbEntity
8
1
100
AcDbVertex
100
AcDb2dVertex
62
1
10
-164.300767
20
906.398850
0
VERTEX
5
34d
100
AcDbEntity
8
1
100
AcDbVertex
100
AcDb2dVertex
62
1
10
-164.269517
20
906.273850
0
VERTEX
5
34e
100
AcDbEntity
8
1
100
AcDbVertex
100
AcDb2dVertex
62
1
10
-164.269517
20
905.898850
0
VERTEX
5
34f
100
AcDbEntity
8
1
100
AcDbVertex
100
AcDb2dVertex
62
1
10
-164.300767
20
905.773850
0
VERTEX
5
350
100
AcDbEntity
8
1
100
AcDbVertex
100
AcDb2dVertex
62
1
10
-164.332017
20
905.742600
0
VERTEX
5
351
100
AcDbEntity
8
1
100
AcDbVertex
100
AcDb2dVertex
62
1
10
-164.394517
20
905.711350
0
VERTEX
5
352
100
AcDbEntity
8
1
100
AcDbVertex
100
AcDb2dVertex
62
1
10
-164.457017
20
905.711350
0
VERTEX
5
353
100
AcDbEntity
8
1
100
AcDbVertex
100
AcDb2dVertex
62
1
10
-164.519517
20
905.742600
0
VERTEX
5
354
100
AcDbEntity
8
1
100
AcDbVertex
100
AcDb2dVertex
62
1
10
-164.550767
20
905.773850
0
VERTEX
5
355
100
AcDbEntity
8
1
100
AcDbVertex
100
AcDb2dVertex
62
1
10
-164.582017
20
905.898850
0
VERTEX
5
356
100
AcDbEntity
8
1
100
AcDbVertex
100
AcDb2dVertex
62
1
10
-164.582017
20
906.273850
0
VERTEX
5
357
100
AcDbEntity
8
1
100
AcDbVertex
100
AcDb2dVertex
62
1
10
-164.550767
20
906.398850
0
VERTEX
5
358
100
AcDbEntity
8
1
100
AcDbVertex
100
AcDb2dVertex
62
1
10
-164.519517
20
906.430100
0
VERTEX
5
359
100
AcDbEntity
8
1
100
AcDbVertex
100
AcDb2dVertex
62
1
10
-164.457017
20
906.461350
0
SEQEND
5
35a
100
AcDbEntity
8
1
0
POLYLINE
5
35b
100
AcDbEntity
8
1
6
CONTINUOUS
62
1
100
AcDb2dPolyline
66
1
10
0.0
20
0.0
30
0.0
70
0
0
VERTEX
5
35c
100
AcDbEntity
8
1
100
AcDbVertex
100
AcDb2dVertex
62
1
10
-164.082017
20
906.461350
0
VERTEX
5
35d
100
AcDbEntity
8
1
100
AcDbVertex
100
AcDb2dVertex
62
1
10
-164.082017
20
905.867600
0
VERTEX
5
35e
100
AcDbEntity
8
1
100
AcDbVertex
100
AcDb2dVertex
62
1
10
-164.050767
20
905.773850
0
VERTEX
5
35f
100
AcDbEntity
8
1
100
AcDbVertex
100
AcDb2dVertex
62
1
10
-164.019517
20
905.742600
0
VERTEX
5
360
100
AcDbEntity
8
1
100
AcDbVertex
100
AcDb2dVertex
62
1
10
-163.957017
20
905.711350
0
VERTEX
5
361
100
AcDbEntity
8
1
100
AcDbVertex
100
AcDb2dVertex
62
1
10
-163.894517
20
905.711350
0
VERTEX
5
362
100
AcDbEntity
8
1
100
AcDbVertex
100
AcDb2dVertex
62
1
10
-163.832017
20
905.742600
0
VERTEX
5
363
100
AcDbEntity
8
1
100
AcDbVertex
100
AcDb2dVertex
62
1
10
-163.800767
20
905.773850
0
VERTEX
5
364
100
AcDbEntity
8
1
100
AcDbVertex
100
AcDb2dVertex
62
1
10
-163.769517
20
905.867600
0
VERTEX
5
365
100
AcDbEntity
8
1
100
AcDbVertex
100
AcDb2dVertex
62
1
10
-163.769517
20
906.461350
0
SEQEND
5
366
100
AcDbEntity
8
1
0
LINE
5
367
100
AcDbEntity
8
1
100
AcDbLine
6
CONTINUOUS
62
1
10
-163.582017
20
906.461350
11
-163.269517
21
906.461350
0
LINE
5
368
100
AcDbEntity
8
1
100
AcDbLine
6
CONTINUOUS
62
1
10
-163.425767
20
906.461350
11
-163.425767
21
905.711350
0
POLYLINE
5
369
100
AcDbEntity
8
1
6
CONTINUOUS
62
5
100
AcDb2dPolyline
66
1
10
0.0
20
0.0
30
0.0
70
1
0
VERTEX
5
36a
100
AcDbEntity
8
1
100
AcDbVertex
100
AcDb2dVertex
62
5
10
-164.457017
20
913.157350
0
VERTEX
5
36b
100
AcDbEntity
8
1
100
AcDbVertex
100
AcDb2dVertex
62
5
10
-164.457017
20
913.557350
0
VERTEX
5
36c
100
AcDbEntity
8
1
100
AcDbVertex
100
AcDb2dVertex
62
5
10
-164.987017
20
913.557350
0
VERTEX
5
36d
100
AcDbEntity
8
1
100
AcDbVertex
100
AcDb2dVertex
62
5
10
-164.987017
20
913.157350
0
SEQEND
5
36e
100
AcDbEntity
8
1
0
POLYLINE
5
36f
100
AcDbEntity
8
1
6
CONTINUOUS
62
5
100
AcDb2dPolyline
66
1
10
0.0
20
0.0
30
0.0
70
1
0
VERTEX
5
370
100
AcDbEntity
8
1
100
AcDbVertex
100
AcDb2dVertex
62
5
10
-162.587017
20
913.157350
0
VERTEX
5
371
100
AcDbEntity
8
1
100
AcDbVertex
100
AcDb2dVertex
62
5
10
-162.587017
20
913.557350
0
VERTEX
5
372
100
AcDbEntity
8
1
100
AcDbVertex
100
AcDb2dVertex
62
5
10
-163.117017
20
913.557350
0
VERTEX
5
373
100
AcDbEntity
8
1
100
AcDbVertex
100
AcDb2dVertex
62
5
10
-163.117017
20
913.157350
0
SEQEND
5
374
100
AcDbEntity
8
1
0
POLYLINE
5
375
100
AcDbEntity
8
1
6
CONTINUOUS
62
1
100
AcDb2dPolyline
66
1
10
0.0
20
0.0
30
0.0
70
0
0
VERTEX
5
376
100
AcDbEntity
8
1
100
AcDbVertex
100
AcDb2dVertex
62
1
10
-165.456878
20
912.215100
0
VERTEX
5
377
100
AcDbEntity
8
1
100
AcDbVertex
100
AcDb2dVertex
62
1
10
-165.400628
20
912.252600
0
VERTEX
5
378
100
AcDbEntity
8
1
100
AcDbVertex
100
AcDb2dVertex
62
1
10
-165.400628
20
911.802600
0
SEQEND
5
379
100
AcDbEntity
8
1
0
LINE
5
37a
100
AcDbEntity
8
1
100
AcDbLine
6
CONTINUOUS
62
1
10
-165.438128
20
911.802600
11
-165.363128
21
911.802600
0
POLYLINE
5
37b
100
AcDbEntity
8
1
6
CONTINUOUS
62
1
100
AcDb2dPolyline
66
1
10
0.0
20
0.0
30
0.0
70
1
0
VERTEX
5
37c
100
AcDbEntity
8
1
100
AcDbVertex
100
AcDb2dVertex
62
1
10
-165.119378
20
912.252600
0
VERTEX
5
37d
100
AcDbEntity
8
1
100
AcDbVertex
100
AcDb2dVertex
62
1
10
-165.081878
20
912.252600
0
VERTEX
5
37e
100
AcDbEntity
8
1
100
AcDbVertex
100
AcDb2dVertex
62
1
10
-165.063128
20
912.233850
0
VERTEX
5
37f
100
AcDbEntity
8
1
100
AcDbVertex
100
AcDb2dVertex
62
1
10
-165.025628
20
912.158850
0
VERTEX
5
380
100
AcDbEntity
8
1
100
AcDbVertex
100
AcDb2dVertex
62
1
10
-165.006878
20
912.083850
0
VERTEX
5
381
100
AcDbEntity
8
1
100
AcDbVertex
100
AcDb2dVertex
62
1
10
-165.006878
20
911.971350
0
VERTEX
5
382
100
AcDbEntity
8
1
100
AcDbVertex
100
AcDb2dVertex
62
1
10
-165.025628
20
911.896350
0
VERTEX
5
383
100
AcDbEntity
8
1
100
AcDbVertex
100
AcDb2dVertex
62
1
10
-165.063128
20
911.821350
0
VERTEX
5
384
100
AcDbEntity
8
1
100
AcDbVertex
100
AcDb2dVertex
62
1
10
-165.081878
20
911.802600
0
VERTEX
5
385
100
AcDbEntity
8
1
100
AcDbVertex
100
AcDb2dVertex
62
1
10
-165.119378
20
911.802600
0
VERTEX
5
386
100
AcDbEntity
8
1
100
AcDbVertex
100
AcDb2dVertex
62
1
10
-165.138128
20
911.821350
0
VERTEX
5
387
100
AcDbEntity
8
1
100
AcDbVertex
100
AcDb2dVertex
62
1
10
-165.175628
20
911.896350
0
VERTEX
5
388
100
AcDbEntity
8
1
100
AcDbVertex
100
AcDb2dVertex
62
1
10
-165.194378
20
911.971350
0
VERTEX
5
389
100
AcDbEntity
8
1
100
AcDbVertex
100
AcDb2dVertex
62
1
10
-165.194378
20
912.083850
0
VERTEX
5
38a
100
AcDbEntity
8
1
100
AcDbVertex
100
AcDb2dVertex
62
1
10
-165.175628
20
912.158850
0
VERTEX
5
38b
100
AcDbEntity
8
1
100
AcDbVertex
100
AcDb2dVertex
62
1
10
-165.138128
20
912.233850
0
VERTEX
5
38c
100
AcDbEntity
8
1
100
AcDbVertex
100
AcDb2dVertex
62
1
10
-165.119378
20
912.252600
0
SEQEND
5
38d
100
AcDbEntity
8
1
0
LINE
5
38e
100
AcDbEntity
8
1
100
AcDbLine
6
CONTINUOUS
62
1
10
-164.706878
20
912.271350
11
-164.894378
21
911.783850
0
POLYLINE
5
38f
100
AcDbEntity
8
1
6
CONTINUOUS
62
1
100
AcDb2dPolyline
66
1
10
0.0
20
0.0
30
0.0
70
0
0
VERTEX
5
390
100
AcDbEntity
8
1
100
AcDbVertex
100
AcDb2dVertex
62
1
10
-164.556878
20
912.215100
0
VERTEX
5
391
100
AcDbEntity
8
1
100
AcDbVertex
100
AcDb2dVertex
62
1
10
-164.500628
20
912.252600
0
VERTEX
5
392
100
AcDbEntity
8
1
100
AcDbVertex
100
AcDb2dVertex
62
1
10
-164.500628
20
911.802600
0
SEQEND
5
393
100
AcDbEntity
8
1
0
LINE
5
394
100
AcDbEntity
8
1
100
AcDbLine
6
CONTINUOUS
62
1
10
-164.538128
20
911.802600
11
-164.463128
21
911.802600
0
POLYLINE
5
395
100
AcDbEntity
8
1
6
CONTINUOUS
62
1
100
AcDb2dPolyline
66
1
10
0.0
20
0.0
30
0.0
70
1
0
VERTEX
5
396
100
AcDbEntity
8
1
100
AcDbVertex
100
AcDb2dVertex
62
1
10
-164.219378
20
912.252600
0
VERTEX
5
397
100
AcDbEntity
8
1
100
AcDbVertex
100
AcDb2dVertex
62
1
10
-164.181878
20
912.252600
0
VERTEX
5
398
100
AcDbEntity
8
1
100
AcDbVertex
100
AcDb2dVertex
62
1
10
-164.163128
20
912.233850
0
VERTEX
5
399
100
AcDbEntity
8
1
100
AcDbVertex
100
AcDb2dVertex
62
1
10
-164.125628
20
912.158850
0
VERTEX
5
39a
100
AcDbEntity
8
1
100
AcDbVertex
100
AcDb2dVertex
62
1
10
-164.106878
20
912.083850
0
VERTEX
5
39b
100
AcDbEntity
8
1
100
AcDbVertex
100
AcDb2dVertex
62
1
10
-164.106878
20
911.971350
0
VERTEX
5
39c
100
AcDbEntity
8
1
100
AcDbVertex
100
AcDb2dVertex
62
1
10
-164.125628
20
911.896350
0
VERTEX
5
39d
100
AcDbEntity
8
1
100
AcDbVertex
100
AcDb2dVertex
62
1
10
-164.163128
20
911.821350
0
VERTEX
5
39e
100
AcDbEntity
8
1
100
AcDbVertex
100
AcDb2dVertex
62
1
10
-164.181878
20
911.802600
0
VERTEX
5
39f
100
AcDbEntity
8
1
100
AcDbVertex
100
AcDb2dVertex
62
1
10
-164.219378
20
911.802600
0
VERTEX
5
3a0
100
AcDbEntity
8
1
100
AcDbVertex
100
AcDb2dVertex
62
1
10
-164.238128
20
911.821350
0
VERTEX
5
3a1
100
AcDbEntity
8
1
100
AcDbVertex
100
AcDb2dVertex
62
1
10
-164.275628
20
911.896350
0
VERTEX
5
3a2
100
AcDbEntity
8
1
100
AcDbVertex
100
AcDb2dVertex
62
1
10
-164.294378
20
911.971350
0
VERTEX
5
3a3
100
AcDbEntity
8
1
100
AcDbVertex
100
AcDb2dVertex
62
1
10
-164.294378
20
912.083850
0
VERTEX
5
3a4
100
AcDbEntity
8
1
100
AcDbVertex
100
AcDb2dVertex
62
1
10
-164.275628
20
912.158850
0
VERTEX
5
3a5
100
AcDbEntity
8
1
100
AcDbVertex
100
AcDb2dVertex
62
1
10
-164.238128
20
912.233850
0
VERTEX
5
3a6
100
AcDbEntity
8
1
100
AcDbVertex
100
AcDb2dVertex
62
1
10
-164.219378
20
912.252600
0
SEQEND
5
3a7
100
AcDbEntity
8
1
0
POLYLINE
5
3a8
100
AcDbEntity
8
1
6
CONTINUOUS
62
1
100
AcDb2dPolyline
66
1
10
0.0
20
0.0
30
0.0
70
1
0
VERTEX
5
3a9
100
AcDbEntity
8
1
100
AcDbVertex
100
AcDb2dVertex
62
1
10
-163.919378
20
912.252600
0
VERTEX
5
3aa
100
AcDbEntity
8
1
100
AcDbVertex
100
AcDb2dVertex
62
1
10
-163.881878
20
912.252600
0
VERTEX
5
3ab
100
AcDbEntity
8
1
100
AcDbVertex
100
AcDb2dVertex
62
1
10
-163.863128
20
912.233850
0
VERTEX
5
3ac
100
AcDbEntity
8
1
100
AcDbVertex
100
AcDb2dVertex
62
1
10
-163.825628
20
912.158850
0
VERTEX
5
3ad
100
AcDbEntity
8
1
100
AcDbVertex
100
AcDb2dVertex
62
1
10
-163.806878
20
912.083850
0
VERTEX
5
3ae
100
AcDbEntity
8
1
100
AcDbVertex
100
AcDb2dVertex
62
1
10
-163.806878
20
911.971350
0
VERTEX
5
3af
100
AcDbEntity
8
1
100
AcDbVertex
100
AcDb2dVertex
62
1
10
-163.825628
20
911.896350
0
VERTEX
5
3b0
100
AcDbEntity
8
1
100
AcDbVertex
100
AcDb2dVertex
62
1
10
-163.863128
20
911.821350
0
VERTEX
5
3b1
100
AcDbEntity
8
1
100
AcDbVertex
100
AcDb2dVertex
62
1
10
-163.881878
20
911.802600
0
VERTEX
5
3b2
100
AcDbEntity
8
1
100
AcDbVertex
100
AcDb2dVertex
62
1
10
-163.919378
20
911.802600
0
VERTEX
5
3b3
100
AcDbEntity
8
1
100
AcDbVertex
100
AcDb2dVertex
62
1
10
-163.938128
20
911.821350
0
VERTEX
5
3b4
100
AcDbEntity
8
1
100
AcDbVertex
100
AcDb2dVertex
62
1
10
-163.975628
20
911.896350
0
VERTEX
5
3b5
100
AcDbEntity
8
1
100
AcDbVertex
100
AcDb2dVertex
62
1
10
-163.994378
20
911.971350
0
VERTEX
5
3b6
100
AcDbEntity
8
1
100
AcDbVertex
100
AcDb2dVertex
62
1
10
-163.994378
20
912.083850
0
VERTEX
5
3b7
100
AcDbEntity
8
1
100
AcDbVertex
100
AcDb2dVertex
62
1
10
-163.975628
20
912.158850
0
VERTEX
5
3b8
100
AcDbEntity
8
1
100
AcDbVertex
100
AcDb2dVertex
62
1
10
-163.938128
20
912.233850
0
VERTEX
5
3b9
100
AcDbEntity
8
1
100
AcDbVertex
100
AcDb2dVertex
62
1
10
-163.919378
20
912.252600
0
SEQEND
5
3ba
100
AcDbEntity
8
1
0
LINE
5
3bb
100
AcDbEntity
8
1
100
AcDbLine
6
CONTINUOUS
62
1
10
-163.694378
20
912.252600
11
-163.694378
21
911.802600
0
POLYLINE
5
3bc
100
AcDbEntity
8
1
6
CONTINUOUS
62
1
100
AcDb2dPolyline
66
1
10
0.0
20
0.0
30
0.0
70
0
0
VERTEX
5
3bd
100
AcDbEntity
8
1
100
AcDbVertex
100
AcDb2dVertex
62
1
10
-163.694378
20
912.252600
0
VERTEX
5
3be
100
AcDbEntity
8
1
100
AcDbVertex
100
AcDb2dVertex
62
1
10
-163.600628
20
912.252600
0
VERTEX
5
3bf
100
AcDbEntity
8
1
100
AcDbVertex
100
AcDb2dVertex
62
1
10
-163.563128
20
912.233850
0
VERTEX
5
3c0
100
AcDbEntity
8
1
100
AcDbVertex
100
AcDb2dVertex
62
1
10
-163.544378
20
912.215100
0
VERTEX
5
3c1
100
AcDbEntity
8
1
100
AcDbVertex
100
AcDb2dVertex
62
1
10
-163.525628
20
912.177600
0
VERTEX
5
3c2
100
AcDbEntity
8
1
100
AcDbVertex
100
AcDb2dVertex
62
1
10
-163.525628
20
912.121350
0
VERTEX
5
3c3
100
AcDbEntity
8
1
100
AcDbVertex
100
AcDb2dVertex
62
1
10
-163.544378
20
912.083850
0
VERTEX
5
3c4
100
AcDbEntity
8
1
100
AcDbVertex
100
AcDb2dVertex
62
1
10
-163.563128
20
912.065100
0
VERTEX
5
3c5
100
AcDbEntity
8
1
100
AcDbVertex
100
AcDb2dVertex
62
1
10
-163.600628
20
912.046350
0
VERTEX
5
3c6
100
AcDbEntity
8
1
100
AcDbVertex
100
AcDb2dVertex
62
1
10
-163.694378
20
912.046350
0
SEQEND
5
3c7
100
AcDbEntity
8
1
0
POLYLINE
5
3c8
100
AcDbEntity
8
1
6
CONTINUOUS
62
1
100
AcDb2dPolyline
66
1
10
0.0
20
0.0
30
0.0
70
0
0
VERTEX
5
3c9
100
AcDbEntity
8
1
100
AcDbVertex
100
AcDb2dVertex
62
1
10
-163.600628
20
912.046350
0
VERTEX
5
3ca
100
AcDbEntity
8
1
100
AcDbVertex
100
AcDb2dVertex
62
1
10
-163.563128
20
912.027600
0
VERTEX
5
3cb
100
AcDbEntity
8
1
100
AcDbVertex
100
AcDb2dVertex
62
1
10
-163.525628
20
911.990100
0
VERTEX
5
3cc
100
AcDbEntity
8
1
100
AcDbVertex
100
AcDb2dVertex
62
1
10
-163.506878
20
911.952600
0
VERTEX
5
3cd
100
AcDbEntity
8
1
100
AcDbVertex
100
AcDb2dVertex
62
1
10
-163.506878
20
911.877600
0
VERTEX
5
3ce
100
AcDbEntity
8
1
100
AcDbVertex
100
AcDb2dVertex
62
1
10
-163.525628
20
911.840100
0
VERTEX
5
3cf
100
AcDbEntity
8
1
100
AcDbVertex
100
AcDb2dVertex
62
1
10
-163.544378
20
911.821350
0
VERTEX
5
3d0
100
AcDbEntity
8
1
100
AcDbVertex
100
AcDb2dVertex
62
1
10
-163.581878
20
911.802600
0
VERTEX
5
3d1
100
AcDbEntity
8
1
100
AcDbVertex
100
AcDb2dVertex
62
1
10
-163.694378
20
911.802600
0
SEQEND
5
3d2
100
AcDbEntity
8
1
0
POLYLINE
5
3d3
100
AcDbEntity
8
1
6
CONTINUOUS
62
1
100
AcDb2dPolyline
66
1
10
0.0
20
0.0
30
0.0
70
0
0
VERTEX
5
3d4
100
AcDbEntity
8
1
100
AcDbVertex
100
AcDb2dVertex
62
1
10
-163.394378
20
911.802600
0
VERTEX
5
3d5
100
AcDbEntity
8
1
100
AcDbVertex
100
AcDb2dVertex
62
1
10
-163.300628
20
912.252600
0
VERTEX
5
3d6
100
AcDbEntity
8
1
100
AcDbVertex
100
AcDb2dVertex
62
1
10
-163.206878
20
911.802600
0
SEQEND
5
3d7
100
AcDbEntity
8
1
0
LINE
5
3d8
100
AcDbEntity
8
1
100
AcDbLine
6
CONTINUOUS
62
1
10
-163.356878
20
911.952600
11
-163.244378
21
911.952600
0
POLYLINE
5
3d9
100
AcDbEntity
8
1
6
CONTINUOUS
62
1
100
AcDb2dPolyline
66
1
10
0.0
20
0.0
30
0.0
70
0
0
VERTEX
5
3da
100
AcDbEntity
8
1
100
AcDbVertex
100
AcDb2dVertex
62
1
10
-162.906878
20
912.158850
0
VERTEX
5
3db
100
AcDbEntity
8
1
100
AcDbVertex
100
AcDb2dVertex
62
1
10
-162.944378
20
912.233850
0
VERTEX
5
3dc
100
AcDbEntity
8
1
100
AcDbVertex
100
AcDb2dVertex
62
1
10
-163.000628
20
912.252600
0
VERTEX
5
3dd
100
AcDbEntity
8
1
100
AcDbVertex
100
AcDb2dVertex
62
1
10
-163.038128
20
912.252600
0
VERTEX
5
3de
100
AcDbEntity
8
1
100
AcDbVertex
100
AcDb2dVertex
62
1
10
-163.075628
20
912.233850
0
VERTEX
5
3df
100
AcDbEntity
8
1
100
AcDbVertex
100
AcDb2dVertex
62
1
10
-163.113128
20
912.177600
0
VERTEX
5
3e0
100
AcDbEntity
8
1
100
AcDbVertex
100
AcDb2dVertex
62
1
10
-163.113128
20
912.121350
0
VERTEX
5
3e1
100
AcDbEntity
8
1
100
AcDbVertex
100
AcDb2dVertex
62
1
10
-163.075628
20
912.065100
0
VERTEX
5
3e2
100
AcDbEntity
8
1
100
AcDbVertex
100
AcDb2dVertex
62
1
10
-162.944378
20
911.990100
0
VERTEX
5
3e3
100
AcDbEntity
8
1
100
AcDbVertex
100
AcDb2dVertex
62
1
10
-162.906878
20
911.933850
0
VERTEX
5
3e4
100
AcDbEntity
8
1
100
AcDbVertex
100
AcDb2dVertex
62
1
10
-162.906878
20
911.877600
0
VERTEX
5
3e5
100
AcDbEntity
8
1
100
AcDbVertex
100
AcDb2dVertex
62
1
10
-162.944378
20
911.821350
0
VERTEX
5
3e6
100
AcDbEntity
8
1
100
AcDbVertex
100
AcDb2dVertex
62
1
10
-163.000628
20
911.802600
0
VERTEX
5
3e7
100
AcDbEntity
8
1
100
AcDbVertex
100
AcDb2dVertex
62
1
10
-163.038128
20
911.802600
0
VERTEX
5
3e8
100
AcDbEntity
8
1
100
AcDbVertex
100
AcDb2dVertex
62
1
10
-163.094378
20
911.840100
0
VERTEX
5
3e9
100
AcDbEntity
8
1
100
AcDbVertex
100
AcDb2dVertex
62
1
10
-163.113128
20
911.915100
0
SEQEND
5
3ea
100
AcDbEntity
8
1
0
POLYLINE
5
3eb
100
AcDbEntity
8
1
6
CONTINUOUS
62
1
100
AcDb2dPolyline
66
1
10
0.0
20
0.0
30
0.0
70
0
0
VERTEX
5
3ec
100
AcDbEntity
8
1
100
AcDbVertex
100
AcDb2dVertex
62
1
10
-162.606878
20
912.252600
0
VERTEX
5
3ed
100
AcDbEntity
8
1
100
AcDbVertex
100
AcDb2dVertex
62
1
10
-162.794378
20
912.252600
0
VERTEX
5
3ee
100
AcDbEntity
8
1
100
AcDbVertex
100
AcDb2dVertex
62
1
10
-162.794378
20
911.802600
0
VERTEX
5
3ef
100
AcDbEntity
8
1
100
AcDbVertex
100
AcDb2dVertex
62
1
10
-162.588128
20
911.802600
0
SEQEND
5
3f0
100
AcDbEntity
8
1
0
LINE
5
3f1
100
AcDbEntity
8
1
100
AcDbLine
6
CONTINUOUS
62
1
10
-162.794378
20
912.027600
11
-162.625628
21
912.027600
0
LINE
5
3f2
100
AcDbEntity
8
1
100
AcDbLine
6
CONTINUOUS
62
1
10
-162.494378
20
912.027600
11
-162.306878
21
912.027600
0
LINE
5
3f3
100
AcDbEntity
8
1
100
AcDbLine
6
CONTINUOUS
62
1
10
-162.194378
20
912.252600
11
-162.006878
21
912.252600
0
LINE
5
3f4
100
AcDbEntity
8
1
100
AcDbLine
6
CONTINUOUS
62
1
10
-162.100628
20
912.252600
11
-162.100628
21
911.802600
0
POLYLINE
5
3f5
100
AcDbEntity
8
1
6
CONTINUOUS
62
5
100
AcDb2dPolyline
66
1
10
0.0
20
0.0
30
0.0
70
1
0
VERTEX
5
3f6
100
AcDbEntity
8
1
100
AcDbVertex
100
AcDb2dVertex
62
5
10
-163.117017
20
913.157350
0
VERTEX
5
3f7
100
AcDbEntity
8
1
100
AcDbVertex
100
AcDb2dVertex
62
5
10
-163.117017
20
913.557350
0
VERTEX
5
3f8
100
AcDbEntity
8
1
100
AcDbVertex
100
AcDb2dVertex
62
5
10
-162.587017
20
913.557350
0
VERTEX
5
3f9
100
AcDbEntity
8
1
100
AcDbVertex
100
AcDb2dVertex
62
5
10
-162.587017
20
914.897350
0
VERTEX
5
3fa
100
AcDbEntity
8
1
100
AcDbVertex
100
AcDb2dVertex
62
5
10
-164.987017
20
914.897350
0
VERTEX
5
3fb
100
AcDbEntity
8
1
100
AcDbVertex
100
AcDb2dVertex
62
5
10
-164.987017
20
913.557350
0
VERTEX
5
3fc
100
AcDbEntity
8
1
100
AcDbVertex
100
AcDb2dVertex
62
5
10
-164.457017
20
913.557350
0
VERTEX
5
3fd
100
AcDbEntity
8
1
100
AcDbVertex
100
AcDb2dVertex
62
5
10
-164.457017
20
913.157350
0
VERTEX
5
3fe
100
AcDbEntity
8
1
100
AcDbVertex
100
AcDb2dVertex
62
5
10
-164.227017
20
913.157350
0
VERTEX
5
3ff
100
AcDbEntity
8
1
100
AcDbVertex
100
AcDb2dVertex
62
5
10
-164.227017
20
912.957350
0
VERTEX
5
400
100
AcDbEntity
8
1
100
AcDbVertex
100
AcDb2dVertex
62
5
10
-163.347017
20
912.957350
0
VERTEX
5
401
100
AcDbEntity
8
1
100
AcDbVertex
100
AcDb2dVertex
62
5
10
-163.347017
20
913.157350
0
SEQEND
5
402
100
AcDbEntity
8
1
0
POLYLINE
5
403
100
AcDbEntity
8
1
6
CONTINUOUS
62
5
100
AcDb2dPolyline
66
1
10
0.0
20
0.0
30
0.0
70
0
0
VERTEX
5
404
100
AcDbEntity
8
1
100
AcDbVertex
100
AcDb2dVertex
62
5
10
-164.825089
20
915.381350
0
VERTEX
5
405
100
AcDbEntity
8
1
100
AcDbVertex
100
AcDb2dVertex
62
5
10
-164.825089
20
915.541350
0
VERTEX
5
406
100
AcDbEntity
8
1
100
AcDbVertex
100
AcDb2dVertex
62
5
10
-164.388944
20
915.541350
0
VERTEX
5
407
100
AcDbEntity
8
1
100
AcDbVertex
100
AcDb2dVertex
62
5
10
-164.388944
20
915.381350
0
SEQEND
5
408
100
AcDbEntity
8
1
0
POLYLINE
5
409
100
AcDbEntity
8
1
6
CONTINUOUS
62
5
100
AcDb2dPolyline
66
1
10
0.0
20
0.0
30
0.0
70
0
0
VERTEX
5
40a
100
AcDbEntity
8
1
100
AcDbVertex
100
AcDb2dVertex
62
5
10
-162.748944
20
915.381350
0
VERTEX
5
40b
100
AcDbEntity
8
1
100
AcDbVertex
100
AcDb2dVertex
62
5
10
-162.748944
20
915.541350
0
VERTEX
5
40c
100
AcDbEntity
8
1
100
AcDbVertex
100
AcDb2dVertex
62
5
10
-163.185089
20
915.541350
0
VERTEX
5
40d
100
AcDbEntity
8
1
100
AcDbVertex
100
AcDb2dVertex
62
5
10
-163.185089
20
915.381350
0
SEQEND
5
40e
100
AcDbEntity
8
1
0
POLYLINE
5
40f
100
AcDbEntity
8
1
6
CONTINUOUS
62
5
100
AcDb2dPolyline
66
1
10
0.0
20
0.0
30
0.0
70
1
0
VERTEX
5
410
100
AcDbEntity
8
1
100
AcDbVertex
100
AcDb2dVertex
62
5
10
-162.197017
20
912.681350
0
VERTEX
5
411
100
AcDbEntity
8
1
100
AcDbVertex
100
AcDb2dVertex
62
5
10
-162.197017
20
915.381350
0
VERTEX
5
412
100
AcDbEntity
8
1
100
AcDbVertex
100
AcDb2dVertex
62
5
10
-165.377017
20
915.381350
0
VERTEX
5
413
100
AcDbEntity
8
1
100
AcDbVertex
100
AcDb2dVertex
62
5
10
-165.377017
20
912.681350
0
SEQEND
5
414
100
AcDbEntity
8
1
0
CIRCLE
5
415
100
AcDbEntity
8
1
100
AcDbCircle
6
CONTINUOUS
62
5
10
-160.707017
20
915.361350
40
0.630000
0
LINE
5
416
100
AcDbEntity
8
1
100
AcDbLine
6
CONTINUOUS
62
5
10
-160.261539
20
915.806827
11
-161.152494
21
914.915873
0
LINE
5
417
100
AcDbEntity
8
1
100
AcDbLine
6
CONTINUOUS
62
5
10
-160.452458
20
915.106792
11
-160.961575
21
915.615908
0
LINE
5
418
100
AcDbEntity
8
1
100
AcDbLine
6
CONTINUOUS
62
1
10
-167.420677
20
912.196350
11
-167.233177
21
912.196350
0
LINE
5
419
100
AcDbEntity
8
1
100
AcDbLine
6
CONTINUOUS
62
1
10
-167.326927
20
912.196350
11
-167.326927
21
911.746350
0
LINE
5
41a
100
AcDbEntity
8
1
100
AcDbLine
6
CONTINUOUS
62
1
10
-167.683177
20
912.196350
11
-167.570677
21
912.196350
0
LINE
5
41b
100
AcDbEntity
8
1
100
AcDbLine
6
CONTINUOUS
62
1
10
-167.626927
20
912.196350
11
-167.626927
21
911.746350
0
LINE
5
41c
100
AcDbEntity
8
1
100
AcDbLine
6
CONTINUOUS
62
1
10
-167.683177
20
911.746350
11
-167.570677
21
911.746350
0
POLYLINE
5
41d
100
AcDbEntity
8
1
6
CONTINUOUS
62
1
100
AcDb2dPolyline
66
1
10
0.0
20
0.0
30
0.0
70
0
0
VERTEX
5
41e
100
AcDbEntity
8
1
100
AcDbVertex
100
AcDb2dVertex
62
1
10
-168.020677
20
911.746350
0
VERTEX
5
41f
100
AcDbEntity
8
1
100
AcDbVertex
100
AcDb2dVertex
62
1
10
-168.020677
20
912.196350
0
VERTEX
5
420
100
AcDbEntity
8
1
100
AcDbVertex
100
AcDb2dVertex
62
1
10
-167.833177
20
911.746350
0
VERTEX
5
421
100
AcDbEntity
8
1
100
AcDbVertex
100
AcDb2dVertex
62
1
10
-167.833177
20
912.196350
0
SEQEND
5
422
100
AcDbEntity
8
1
0
LINE
5
423
100
AcDbEntity
8
1
100
AcDbLine
6
CONTINUOUS
62
1
10
-168.283177
20
912.196350
11
-168.170677
21
912.196350
0
LINE
5
424
100
AcDbEntity
8
1
100
AcDbLine
6
CONTINUOUS
62
1
10
-168.226927
20
912.196350
11
-168.226927
21
911.746350
0
LINE
5
425
100
AcDbEntity
8
1
100
AcDbLine
6
CONTINUOUS
62
1
10
-168.283177
20
911.746350
11
-168.170677
21
911.746350
0
POLYLINE
5
426
100
AcDbEntity
8
1
6
CONTINUOUS
62
5
100
AcDb2dPolyline
66
1
10
0.0
20
0.0
30
0.0
70
1
0
VERTEX
5
427
100
AcDbEntity
8
1
100
AcDbVertex
100
AcDb2dVertex
62
5
10
-167.057017
20
912.681350
0
VERTEX
5
428
100
AcDbEntity
8
1
100
AcDbVertex
100
AcDb2dVertex
62
5
10
-167.057017
20
914.161350
0
VERTEX
5
429
100
AcDbEntity
8
1
100
AcDbVertex
100
AcDb2dVertex
62
5
10
-168.557017
20
914.161350
0
VERTEX
5
42a
100
AcDbEntity
8
1
100
AcDbVertex
100
AcDb2dVertex
62
5
10
-168.557017
20
912.681350
0
SEQEND
5
42b
100
AcDbEntity
8
1
0
CIRCLE
5
42c
100
AcDbEntity
8
1
100
AcDbCircle
6
CONTINUOUS
62
5
10
-167.807017
20
913.481350
40
0.350000
0
CIRCLE
5
42d
100
AcDbEntity
8
1
100
AcDbCircle
6
CONTINUOUS
62
5
10
-167.807017
20
913.481350
40
0.500000
0
CIRCLE
5
42e
100
AcDbEntity
8
1
100
AcDbCircle
6
CONTINUOUS
62
5
10
-168.707017
20
915.361350
40
0.630000
0
LINE
5
42f
100
AcDbEntity
8
1
100
AcDbLine
6
CONTINUOUS
62
5
10
-168.261539
20
915.806827
11
-169.152494
21
914.915873
0
LINE
5
430
100
AcDbEntity
8
1
100
AcDbLine
6
CONTINUOUS
62
5
10
-168.452458
20
915.106792
11
-168.961575
21
915.615908
0
CIRCLE
5
431
100
AcDbEntity
8
1
100
AcDbCircle
6
DOT2
62
5
10
-172.621993
20
913.363638
40
0.260000
0
CIRCLE
5
432
100
AcDbEntity
8
1
100
AcDbCircle
6
CONTINUOUS
62
5
10
-172.621993
20
913.363638
40
0.156000
0
POLYLINE
5
433
100
AcDbEntity
8
1
6
CONTINUOUS
62
5
100
AcDb2dPolyline
66
1
10
0.0
20
0.0
30
0.0
70
1
0
VERTEX
5
434
100
AcDbEntity
8
1
100
AcDbVertex
100
AcDb2dVertex
62
5
10
-172.121993
20
913.652313
0
VERTEX
5
435
100
AcDbEntity
8
1
100
AcDbVertex
100
AcDb2dVertex
62
5
10
-172.621993
20
913.940988
0
VERTEX
5
436
100
AcDbEntity
8
1
100
AcDbVertex
100
AcDb2dVertex
62
5
10
-173.121993
20
913.652313
0
VERTEX
5
437
100
AcDbEntity
8
1
100
AcDbVertex
100
AcDb2dVertex
62
5
10
-173.121993
20
913.074962
0
VERTEX
5
438
100
AcDbEntity
8
1
100
AcDbVertex
100
AcDb2dVertex
62
5
10
-172.621993
20
912.786287
0
VERTEX
5
439
100
AcDbEntity
8
1
100
AcDbVertex
100
AcDb2dVertex
62
5
10
-172.121993
20
913.074962
0
SEQEND
5
43a
100
AcDbEntity
8
1
0
POLYLINE
5
43b
100
AcDbEntity
8
1
6
CONTINUOUS
62
1
100
AcDb2dPolyline
66
1
10
0.0
20
0.0
30
0.0
70
0
0
VERTEX
5
43c
100
AcDbEntity
8
1
100
AcDbVertex
100
AcDb2dVertex
62
1
10
-166.269517
20
916.661350
0
VERTEX
5
43d
100
AcDbEntity
8
1
100
AcDbVertex
100
AcDb2dVertex
62
1
10
-166.582017
20
916.661350
0
VERTEX
5
43e
100
AcDbEntity
8
1
100
AcDbVertex
100
AcDb2dVertex
62
1
10
-166.582017
20
915.911350
0
VERTEX
5
43f
100
AcDbEntity
8
1
100
AcDbVertex
100
AcDb2dVertex
62
1
10
-166.238267
20
915.911350
0
SEQEND
5
440
100
AcDbEntity
8
1
0
LINE
5
441
100
AcDbEntity
8
1
100
AcDbLine
6
CONTINUOUS
62
1
10
-166.582017
20
916.286350
11
-166.300767
21
916.286350
0
LINE
5
442
100
AcDbEntity
8
1
100
AcDbLine
6
CONTINUOUS
62
1
10
-166.082017
20
916.661350
11
-165.769517
21
916.661350
0
LINE
5
443
100
AcDbEntity
8
1
100
AcDbLine
6
CONTINUOUS
62
1
10
-165.925767
20
916.661350
11
-165.925767
21
915.911350
0
POLYLINE
5
444
100
AcDbEntity
8
1
6
CONTINUOUS
62
1
100
AcDb2dPolyline
66
1
10
0.0
20
0.0
30
0.0
70
0
0
VERTEX
5
445
100
AcDbEntity
8
1
100
AcDbVertex
100
AcDb2dVertex
62
1
10
-165.769517
20
906.461350
0
VERTEX
5
446
100
AcDbEntity
8
1
100
AcDbVertex
100
AcDb2dVertex
62
1
10
-166.082017
20
906.461350
0
VERTEX
5
447
100
AcDbEntity
8
1
100
AcDbVertex
100
AcDb2dVertex
62
1
10
-166.082017
20
905.711350
0
VERTEX
5
448
100
AcDbEntity
8
1
100
AcDbVertex
100
AcDb2dVertex
62
1
10
-165.738267
20
905.711350
0
SEQEND
5
449
100
AcDbEntity
8
1
0
LINE
5
44a
100
AcDbEntity
8
1
100
AcDbLine
6
CONTINUOUS
62
1
10
-166.082017
20
906.086350
11
-165.800767
21
906.086350
0
CIRCLE
5
44b
100
AcDbEntity
8
1
100
AcDbCircle
6
CONTINUOUS
62
5
10
-166.207017
20
914.205350
40
0.300000
0
CIRCLE
5
44c
100
AcDbEntity
8
1
100
AcDbCircle
6
CONTINUOUS
62
5
10
-166.207017
20
914.205350
40
0.400000
0
LINE
5
44d
100
AcDbEntity
8
1
100
AcDbLine
6
CONTINUOUS
62
1
10
-166.582017
20
912.639350
11
-166.582017
21
912.189350
0
POLYLINE
5
44e
100
AcDbEntity
8
1
6
CONTINUOUS
62
1
100
AcDb2dPolyline
66
1
10
0.0
20
0.0
30
0.0
70
0
0
VERTEX
5
44f
100
AcDbEntity
8
1
100
AcDbVertex
100
AcDb2dVertex
62
1
10
-166.582017
20
912.639350
0
VERTEX
5
450
100
AcDbEntity
8
1
100
AcDbVertex
100
AcDb2dVertex
62
1
10
-166.507017
20
912.639350
0
VERTEX
5
451
100
AcDbEntity
8
1
100
AcDbVertex
100
AcDb2dVertex
62
1
10
-166.450767
20
912.620600
0
VERTEX
5
452
100
AcDbEntity
8
1
100
AcDbVertex
100
AcDb2dVertex
62
1
10
-166.432017
20
912.601850
0
VERTEX
5
453
100
AcDbEntity
8
1
100
AcDbVertex
100
AcDb2dVertex
62
1
10
-166.413267
20
912.545600
0
VERTEX
5
454
100
AcDbEntity
8
1
100
AcDbVertex
100
AcDb2dVertex
62
1
10
-166.413267
20
912.489350
0
VERTEX
5
455
100
AcDbEntity
8
1
100
AcDbVertex
100
AcDb2dVertex
62
1
10
-166.432017
20
912.451850
0
VERTEX
5
456
100
AcDbEntity
8
1
100
AcDbVertex
100
AcDb2dVertex
62
1
10
-166.488267
20
912.414350
0
VERTEX
5
457
100
AcDbEntity
8
1
100
AcDbVertex
100
AcDb2dVertex
62
1
10
-166.582017
20
912.414350
0
SEQEND
5
458
100
AcDbEntity
8
1
0
POLYLINE
5
459
100
AcDbEntity
8
1
6
CONTINUOUS
62
1
100
AcDb2dPolyline
66
1
10
0.0
20
0.0
30
0.0
70
0
0
VERTEX
5
45a
100
AcDbEntity
8
1
100
AcDbVertex
100
AcDb2dVertex
62
1
10
-166.488267
20
912.414350
0
VERTEX
5
45b
100
AcDbEntity
8
1
100
AcDbVertex
100
AcDb2dVertex
62
1
10
-166.450767
20
912.395600
0
VERTEX
5
45c
100
AcDbEntity
8
1
100
AcDbVertex
100
AcDb2dVertex
62
1
10
-166.432017
20
912.358100
0
VERTEX
5
45d
100
AcDbEntity
8
1
100
AcDbVertex
100
AcDb2dVertex
62
1
10
-166.432017
20
912.226850
0
VERTEX
5
45e
100
AcDbEntity
8
1
100
AcDbVertex
100
AcDb2dVertex
62
1
10
-166.413267
20
912.189350
0
VERTEX
5
45f
100
AcDbEntity
8
1
100
AcDbVertex
100
AcDb2dVertex
62
1
10
-166.394517
20
912.189350
0
VERTEX
5
460
100
AcDbEntity
8
1
100
AcDbVertex
100
AcDb2dVertex
62
1
10
-166.375767
20
912.226850
0
SEQEND
5
461
100
AcDbEntity
8
1
0
CIRCLE
5
462
100
AcDbEntity
8
1
100
AcDbCircle
6
CONTINUOUS
62
5
10
-166.207017
20
913.189350
40
0.300000
0
CIRCLE
5
463
100
AcDbEntity
8
1
100
AcDbCircle
6
CONTINUOUS
62
5
10
-166.207017
20
913.189350
40
0.400000
0
POLYLINE
5
464
100
AcDbEntity
8
1
6
CONTINUOUS
62
5
100
AcDb2dPolyline
66
1
10
0.0
20
0.0
30
0.0
70
1
0
VERTEX
5
465
100
AcDbEntity
8
1
100
AcDbVertex
100
AcDb2dVertex
62
5
10
-165.777017
20
912.681350
0
VERTEX
5
466
100
AcDbEntity
8
1
100
AcDbVertex
100
AcDb2dVertex
62
5
10
-165.777017
20
914.621350
0
VERTEX
5
467
100
AcDbEntity
8
1
100
AcDbVertex
100
AcDb2dVertex
62
5
10
-166.637017
20
914.621350
0
VERTEX
5
468
100
AcDbEntity
8
1
100
AcDbVertex
100
AcDb2dVertex
62
5
10
-166.637017
20
912.681350
0
SEQEND
5
469
100
AcDbEntity
8
1
0
POLYLINE
5
46a
100
AcDbEntity
8
1
6
CONTINUOUS
62
1
100
AcDb2dPolyline
66
1
10
0.0
20
0.0
30
0.0
70
0
0
VERTEX
5
46b
100
AcDbEntity
8
1
100
AcDbVertex
100
AcDb2dVertex
62
1
10
-166.282017
20
912.639350
0
VERTEX
5
46c
100
AcDbEntity
8
1
100
AcDbVertex
100
AcDb2dVertex
62
1
10
-166.282017
20
912.283100
0
VERTEX
5
46d
100
AcDbEntity
8
1
100
AcDbVertex
100
AcDb2dVertex
62
1
10
-166.263267
20
912.226850
0
VERTEX
5
46e
100
AcDbEntity
8
1
100
AcDbVertex
100
AcDb2dVertex
62
1
10
-166.244517
20
912.208100
0
VERTEX
5
46f
100
AcDbEntity
8
1
100
AcDbVertex
100
AcDb2dVertex
62
1
10
-166.207017
20
912.189350
0
VERTEX
5
470
100
AcDbEntity
8
1
100
AcDbVertex
100
AcDb2dVertex
62
1
10
-166.169517
20
912.189350
0
VERTEX
5
471
100
AcDbEntity
8
1
100
AcDbVertex
100
AcDb2dVertex
62
1
10
-166.132017
20
912.208100
0
VERTEX
5
472
100
AcDbEntity
8
1
100
AcDbVertex
100
AcDb2dVertex
62
1
10
-166.113267
20
912.226850
0
VERTEX
5
473
100
AcDbEntity
8
1
100
AcDbVertex
100
AcDb2dVertex
62
1
10
-166.094517
20
912.283100
0
VERTEX
5
474
100
AcDbEntity
8
1
100
AcDbVertex
100
AcDb2dVertex
62
1
10
-166.094517
20
912.639350
0
SEQEND
5
475
100
AcDbEntity
8
1
0
POLYLINE
5
476
100
AcDbEntity
8
1
6
CONTINUOUS
62
1
100
AcDb2dPolyline
66
1
10
0.0
20
0.0
30
0.0
70
0
0
VERTEX
5
477
100
AcDbEntity
8
1
100
AcDbVertex
100
AcDb2dVertex
62
1
10
-165.982017
20
912.189350
0
VERTEX
5
478
100
AcDbEntity
8
1
100
AcDbVertex
100
AcDb2dVertex
62
1
10
-165.982017
20
912.639350
0
VERTEX
5
479
100
AcDbEntity
8
1
100
AcDbVertex
100
AcDb2dVertex
62
1
10
-165.794517
20
912.189350
0
VERTEX
5
47a
100
AcDbEntity
8
1
100
AcDbVertex
100
AcDb2dVertex
62
1
10
-165.794517
20
912.639350
0
SEQEND
5
47b
100
AcDbEntity
8
1
0
POLYLINE
5
47c
100
AcDbEntity
8
1
6
CONTINUOUS
62
1
100
AcDb2dPolyline
66
1
10
0.0
20
0.0
30
0.0
70
0
0
VERTEX
5
47d
100
AcDbEntity
8
1
100
AcDbVertex
100
AcDb2dVertex
62
1
10
-166.394517
20
915.127600
0
VERTEX
5
47e
100
AcDbEntity
8
1
100
AcDbVertex
100
AcDb2dVertex
62
1
10
-166.413267
20
915.183850
0
VERTEX
5
47f
100
AcDbEntity
8
1
100
AcDbVertex
100
AcDb2dVertex
62
1
10
-166.450767
20
915.221350
0
VERTEX
5
480
100
AcDbEntity
8
1
100
AcDbVertex
100
AcDb2dVertex
62
1
10
-166.507017
20
915.221350
0
VERTEX
5
481
100
AcDbEntity
8
1
100
AcDbVertex
100
AcDb2dVertex
62
1
10
-166.563267
20
915.165100
0
VERTEX
5
482
100
AcDbEntity
8
1
100
AcDbVertex
100
AcDb2dVertex
62
1
10
-166.582017
20
915.071350
0
VERTEX
5
483
100
AcDbEntity
8
1
100
AcDbVertex
100
AcDb2dVertex
62
1
10
-166.582017
20
914.921350
0
VERTEX
5
484
100
AcDbEntity
8
1
100
AcDbVertex
100
AcDb2dVertex
62
1
10
-166.563267
20
914.827600
0
VERTEX
5
485
100
AcDbEntity
8
1
100
AcDbVertex
100
AcDb2dVertex
62
1
10
-166.507017
20
914.771350
0
VERTEX
5
486
100
AcDbEntity
8
1
100
AcDbVertex
100
AcDb2dVertex
62
1
10
-166.450767
20
914.771350
0
VERTEX
5
487
100
AcDbEntity
8
1
100
AcDbVertex
100
AcDb2dVertex
62
1
10
-166.413267
20
914.808850
0
VERTEX
5
488
100
AcDbEntity
8
1
100
AcDbVertex
100
AcDb2dVertex
62
1
10
-166.375767
20
914.902600
0
SEQEND
5
489
100
AcDbEntity
8
1
0
POLYLINE
5
48a
100
AcDbEntity
8
1
6
CONTINUOUS
62
1
100
AcDb2dPolyline
66
1
10
0.0
20
0.0
30
0.0
70
1
0
VERTEX
5
48b
100
AcDbEntity
8
1
100
AcDbVertex
100
AcDb2dVertex
62
1
10
-166.207017
20
915.221350
0
VERTEX
5
48c
100
AcDbEntity
8
1
100
AcDbVertex
100
AcDb2dVertex
62
1
10
-166.169517
20
915.221350
0
VERTEX
5
48d
100
AcDbEntity
8
1
100
AcDbVertex
100
AcDb2dVertex
62
1
10
-166.132017
20
915.202600
0
VERTEX
5
48e
100
AcDbEntity
8
1
100
AcDbVertex
100
AcDb2dVertex
62
1
10
-166.113267
20
915.183850
0
VERTEX
5
48f
100
AcDbEntity
8
1
100
AcDbVertex
100
AcDb2dVertex
62
1
10
-166.094517
20
915.108850
0
VERTEX
5
490
100
AcDbEntity
8
1
100
AcDbVertex
100
AcDb2dVertex
62
1
10
-166.094517
20
914.883850
0
VERTEX
5
491
100
AcDbEntity
8
1
100
AcDbVertex
100
AcDb2dVertex
62
1
10
-166.113267
20
914.808850
0
VERTEX
5
492
100
AcDbEntity
8
1
100
AcDbVertex
100
AcDb2dVertex
62
1
10
-166.132017
20
914.790100
0
VERTEX
5
493
100
AcDbEntity
8
1
100
AcDbVertex
100
AcDb2dVertex
62
1
10
-166.169517
20
914.771350
0
VERTEX
5
494
100
AcDbEntity
8
1
100
AcDbVertex
100
AcDb2dVertex
62
1
10
-166.207017
20
914.771350
0
VERTEX
5
495
100
AcDbEntity
8
1
100
AcDbVertex
100
AcDb2dVertex
62
1
10
-166.244517
20
914.790100
0
VERTEX
5
496
100
AcDbEntity
8
1
100
AcDbVertex
100
AcDb2dVertex
62
1
10
-166.263267
20
914.808850
0
VERTEX
5
497
100
AcDbEntity
8
1
100
AcDbVertex
100
AcDb2dVertex
62
1
10
-166.282017
20
914.883850
0
VERTEX
5
498
100
AcDbEntity
8
1
100
AcDbVertex
100
AcDb2dVertex
62
1
10
-166.282017
20
915.108850
0
VERTEX
5
499
100
AcDbEntity
8
1
100
AcDbVertex
100
AcDb2dVertex
62
1
10
-166.263267
20
915.183850
0
VERTEX
5
49a
100
AcDbEntity
8
1
100
AcDbVertex
100
AcDb2dVertex
62
1
10
-166.244517
20
915.202600
0
VERTEX
5
49b
100
AcDbEntity
8
1
100
AcDbVertex
100
AcDb2dVertex
62
1
10
-166.207017
20
915.221350
0
SEQEND
5
49c
100
AcDbEntity
8
1
0
POLYLINE
5
49d
100
AcDbEntity
8
1
6
CONTINUOUS
62
1
100
AcDb2dPolyline
66
1
10
0.0
20
0.0
30
0.0
70
0
0
VERTEX
5
49e
100
AcDbEntity
8
1
100
AcDbVertex
100
AcDb2dVertex
62
1
10
-165.982017
20
914.771350
0
VERTEX
5
49f
100
AcDbEntity
8
1
100
AcDbVertex
100
AcDb2dVertex
62
1
10
-165.982017
20
915.221350
0
VERTEX
5
4a0
100
AcDbEntity
8
1
100
AcDbVertex
100
AcDb2dVertex
62
1
10
-165.888267
20
914.771350
0
VERTEX
5
4a1
100
AcDbEntity
8
1
100
AcDbVertex
100
AcDb2dVertex
62
1
10
-165.794517
20
915.221350
0
VERTEX
5
4a2
100
AcDbEntity
8
1
100
AcDbVertex
100
AcDb2dVertex
62
1
10
-165.794517
20
914.771350
0
SEQEND
5
4a3
100
AcDbEntity
8
1
0
ARC
5
4a4
100
AcDbEntity
8
1
100
AcDbCircle
6
CONTINUOUS
62
5
10
-168.307017
20
911.761350
40
0.400000
100
AcDbArc
50
179.999998
51
-89.999999
0
LINE
5
4a5
100
AcDbEntity
8
1
100
AcDbLine
6
CONTINUOUS
62
5
10
-168.307017
20
911.361350
11
-162.107017
21
911.361350
0
ARC
5
4a6
100
AcDbEntity
8
1
100
AcDbCircle
6
CONTINUOUS
62
5
10
-162.107017
20
911.761350
40
0.400000
100
AcDbArc
50
-89.999999
51
0.000000
0
LINE
5
4a7
100
AcDbEntity
8
1
100
AcDbLine
6
CONTINUOUS
62
5
10
-161.707017
20
911.761350
11
-161.707017
21
915.161350
0
ARC
5
4a8
100
AcDbEntity
8
1
100
AcDbCircle
6
CONTINUOUS
62
5
10
-162.107017
20
915.161350
40
0.400000
100
AcDbArc
50
0.000000
51
89.999999
0
LINE
5
4a9
100
AcDbEntity
8
1
100
AcDbLine
6
CONTINUOUS
62
5
10
-162.107017
20
915.561350
11
-167.307017
21
915.561350
0
ARC
5
4aa
100
AcDbEntity
8
1
100
AcDbCircle
6
CONTINUOUS
62
5
10
-167.307017
20
915.161350
40
0.400000
100
AcDbArc
50
89.999999
51
179.999998
0
LINE
5
4ab
100
AcDbEntity
8
1
100
AcDbLine
6
CONTINUOUS
62
5
10
-167.707017
20
915.161350
11
-167.707017
21
914.781350
0
ARC
5
4ac
100
AcDbEntity
8
1
100
AcDbCircle
6
CONTINUOUS
62
5
10
-168.107017
20
914.781350
40
0.400000
100
AcDbArc
50
-89.999999
51
0.000000
0
LINE
5
4ad
100
AcDbEntity
8
1
100
AcDbLine
6
CONTINUOUS
62
5
10
-168.107017
20
914.381350
11
-168.307017
21
914.381350
0
ARC
5
4ae
100
AcDbEntity
8
1
100
AcDbCircle
6
CONTINUOUS
62
5
10
-168.307017
20
913.981350
40
0.400000
100
AcDbArc
50
89.999999
51
179.999998
0
LINE
5
4af
100
AcDbEntity
8
1
100
AcDbLine
6
CONTINUOUS
62
5
10
-168.707017
20
913.981350
11
-168.707017
21
911.761350
0
CIRCLE
5
4b0
100
AcDbEntity
8
1
100
AcDbCircle
6
CONTINUOUS
62
5
10
-191.307017
20
922.761350
40
0.530000
0
LINE
5
4b1
100
AcDbEntity
8
1
100
AcDbLine
6
CONTINUOUS
62
5
10
-190.932250
20
923.136117
11
-191.681783
21
922.386584
0
LINE
5
4b2
100
AcDbEntity
8
1
100
AcDbLine
6
CONTINUOUS
62
5
10
-191.130240
20
922.584574
11
-191.483793
21
922.938127
0
ARC
5
4b3
100
AcDbEntity
8
1
100
AcDbCircle
6
CONTINUOUS
62
5
10
-189.707017
20
924.361350
40
1.200000
100
AcDbArc
50
179.999998
51
0.000000
0
LINE
5
4b4
100
AcDbEntity
8
1
100
AcDbLine
6
CONTINUOUS
62
5
10
-188.507017
20
924.361350
11
-188.507017
21
924.361350
0
ARC
5
4b5
100
AcDbEntity
8
1
100
AcDbCircle
6
CONTINUOUS
62
5
10
-189.707017
20
924.361350
40
1.200000
100
AcDbArc
50
0.000000
51
179.999998
0
LINE
5
4b6
100
AcDbEntity
8
1
100
AcDbLine
6
CONTINUOUS
62
5
10
-190.907017
20
924.361350
11
-190.907017
21
924.361350
0
CIRCLE
5
4b7
100
AcDbEntity
8
1
100
AcDbCircle
6
CONTINUOUS
62
5
10
-191.307017
20
925.961350
40
0.530000
0
LINE
5
4b8
100
AcDbEntity
8
1
100
AcDbLine
6
CONTINUOUS
62
5
10
-190.932250
20
926.336117
11
-191.681783
21
925.586584
0
LINE
5
4b9
100
AcDbEntity
8
1
100
AcDbLine
6
CONTINUOUS
62
5
10
-191.130240
20
925.784574
11
-191.483793
21
926.138127
0
CIRCLE
5
4ba
100
AcDbEntity
8
1
100
AcDbCircle
6
CONTINUOUS
62
5
10
-188.107017
20
922.761350
40
0.530000
0
LINE
5
4bb
100
AcDbEntity
8
1
100
AcDbLine
6
CONTINUOUS
62
5
10
-187.732250
20
923.136117
11
-188.481783
21
922.386584
0
LINE
5
4bc
100
AcDbEntity
8
1
100
AcDbLine
6
CONTINUOUS
62
5
10
-187.930240
20
922.584574
11
-188.283793
21
922.938127
0
CIRCLE
5
4bd
100
AcDbEntity
8
1
100
AcDbCircle
6
CONTINUOUS
62
5
10
-188.107017
20
925.961350
40
0.530000
0
LINE
5
4be
100
AcDbEntity
8
1
100
AcDbLine
6
CONTINUOUS
62
5
10
-187.732250
20
926.336117
11
-188.481783
21
925.586584
0
LINE
5
4bf
100
AcDbEntity
8
1
100
AcDbLine
6
CONTINUOUS
62
5
10
-187.930240
20
925.784574
11
-188.283793
21
926.138127
0
ARC
5
4c0
100
AcDbEntity
8
1
100
AcDbCircle
6
CONTINUOUS
62
5
10
-188.007017
20
922.661350
40
0.400000
100
AcDbArc
50
-89.999999
51
0.000000
0
LINE
5
4c1
100
AcDbEntity
8
1
100
AcDbLine
6
CONTINUOUS
62
5
10
-187.607017
20
922.661350
11
-187.607017
21
926.061350
0
ARC
5
4c2
100
AcDbEntity
8
1
100
AcDbCircle
6
CONTINUOUS
62
5
10
-188.007017
20
926.061350
40
0.400000
100
AcDbArc
50
0.000000
51
89.999999
0
LINE
5
4c3
100
AcDbEntity
8
1
100
AcDbLine
6
CONTINUOUS
62
5
10
-188.007017
20
926.461350
11
-191.407017
21
926.461350
0
ARC
5
4c4
100
AcDbEntity
8
1
100
AcDbCircle
6
CONTINUOUS
62
5
10
-191.407017
20
926.061350
40
0.400000
100
AcDbArc
50
89.999999
51
179.999998
0
LINE
5
4c5
100
AcDbEntity
8
1
100
AcDbLine
6
CONTINUOUS
62
5
10
-191.807017
20
926.061350
11
-191.807017
21
922.661350
0
ARC
5
4c6
100
AcDbEntity
8
1
100
AcDbCircle
6
CONTINUOUS
62
5
10
-191.407017
20
922.661350
40
0.400000
100
AcDbArc
50
179.999998
51
-89.999999
0
LINE
5
4c7
100
AcDbEntity
8
1
100
AcDbLine
6
CONTINUOUS
62
5
10
-191.407017
20
922.261350
11
-188.007017
21
922.261350
0
CIRCLE
5
4c8
100
AcDbEntity
8
1
100
AcDbCircle
6
CONTINUOUS
62
5
10
-189.707017
20
924.361350
40
1.500000
0
LINE
5
4c9
100
AcDbEntity
8
1
100
AcDbLine
6
CONTINUOUS
62
1
10
-190.082017
20
927.561350
11
-190.082017
21
926.811350
0
POLYLINE
5
4ca
100
AcDbEntity
8
1
6
CONTINUOUS
62
1
100
AcDb2dPolyline
66
1
10
0.0
20
0.0
30
0.0
70
0
0
VERTEX
5
4cb
100
AcDbEntity
8
1
100
AcDbVertex
100
AcDb2dVertex
62
1
10
-190.082017
20
927.561350
0
VERTEX
5
4cc
100
AcDbEntity
8
1
100
AcDbVertex
100
AcDb2dVertex
62
1
10
-189.925767
20
927.561350
0
VERTEX
5
4cd
100
AcDbEntity
8
1
100
AcDbVertex
100
AcDb2dVertex
62
1
10
-189.863267
20
927.530100
0
VERTEX
5
4ce
100
AcDbEntity
8
1
100
AcDbVertex
100
AcDb2dVertex
62
1
10
-189.800767
20
927.467600
0
VERTEX
5
4cf
100
AcDbEntity
8
1
100
AcDbVertex
100
AcDb2dVertex
62
1
10
-189.769517
20
927.342600
0
VERTEX
5
4d0
100
AcDbEntity
8
1
100
AcDbVertex
100
AcDb2dVertex
62
1
10
-189.769517
20
927.030100
0
VERTEX
5
4d1
100
AcDbEntity
8
1
100
AcDbVertex
100
AcDb2dVertex
62
1
10
-189.800767
20
926.905100
0
VERTEX
5
4d2
100
AcDbEntity
8
1
100
AcDbVertex
100
AcDb2dVertex
62
1
10
-189.863267
20
926.842600
0
VERTEX
5
4d3
100
AcDbEntity
8
1
100
AcDbVertex
100
AcDb2dVertex
62
1
10
-189.925767
20
926.811350
0
VERTEX
5
4d4
100
AcDbEntity
8
1
100
AcDbVertex
100
AcDb2dVertex
62
1
10
-190.082017
20
926.811350
0
SEQEND
5
4d5
100
AcDbEntity
8
1
0
POLYLINE
5
4d6
100
AcDbEntity
8
1
6
CONTINUOUS
62
1
100
AcDb2dPolyline
66
1
10
0.0
20
0.0
30
0.0
70
0
0
VERTEX
5
4d7
100
AcDbEntity
8
1
100
AcDbVertex
100
AcDb2dVertex
62
1
10
-189.269517
20
927.405100
0
VERTEX
5
4d8
100
AcDbEntity
8
1
100
AcDbVertex
100
AcDb2dVertex
62
1
10
-189.300767
20
927.498850
0
VERTEX
5
4d9
100
AcDbEntity
8
1
100
AcDbVertex
100
AcDb2dVertex
62
1
10
-189.363267
20
927.561350
0
VERTEX
5
4da
100
AcDbEntity
8
1
100
AcDbVertex
100
AcDb2dVertex
62
1
10
-189.457017
20
927.561350
0
VERTEX
5
4db
100
AcDbEntity
8
1
100
AcDbVertex
100
AcDb2dVertex
62
1
10
-189.550767
20
927.467600
0
VERTEX
5
4dc
100
AcDbEntity
8
1
100
AcDbVertex
100
AcDb2dVertex
62
1
10
-189.582017
20
927.311350
0
VERTEX
5
4dd
100
AcDbEntity
8
1
100
AcDbVertex
100
AcDb2dVertex
62
1
10
-189.582017
20
927.061350
0
VERTEX
5
4de
100
AcDbEntity
8
1
100
AcDbVertex
100
AcDb2dVertex
62
1
10
-189.550767
20
926.905100
0
VERTEX
5
4df
100
AcDbEntity
8
1
100
AcDbVertex
100
AcDb2dVertex
62
1
10
-189.457017
20
926.811350
0
VERTEX
5
4e0
100
AcDbEntity
8
1
100
AcDbVertex
100
AcDb2dVertex
62
1
10
-189.363267
20
926.811350
0
VERTEX
5
4e1
100
AcDbEntity
8
1
100
AcDbVertex
100
AcDb2dVertex
62
1
10
-189.300767
20
926.873850
0
VERTEX
5
4e2
100
AcDbEntity
8
1
100
AcDbVertex
100
AcDb2dVertex
62
1
10
-189.238267
20
927.030100
0
SEQEND
5
4e3
100
AcDbEntity
8
1
0
POLYLINE
5
4e4
100
AcDbEntity
8
1
6
CONTINUOUS
62
1
100
AcDb2dPolyline
66
1
10
0.0
20
0.0
30
0.0
70
0
0
VERTEX
5
4e5
100
AcDbEntity
8
1
100
AcDbVertex
100
AcDb2dVertex
62
1
10
-188.769517
20
927.561350
0
VERTEX
5
4e6
100
AcDbEntity
8
1
100
AcDbVertex
100
AcDb2dVertex
62
1
10
-189.082017
20
927.561350
0
VERTEX
5
4e7
100
AcDbEntity
8
1
100
AcDbVertex
100
AcDb2dVertex
62
1
10
-189.082017
20
926.811350
0
VERTEX
5
4e8
100
AcDbEntity
8
1
100
AcDbVertex
100
AcDb2dVertex
62
1
10
-188.738267
20
926.811350
0
SEQEND
5
4e9
100
AcDbEntity
8
1
0
LINE
5
4ea
100
AcDbEntity
8
1
100
AcDbLine
6
CONTINUOUS
62
1
10
-189.082017
20
927.186350
11
-188.800767
21
927.186350
0
POLYLINE
5
4eb
100
AcDbEntity
8
1
6
CONTINUOUS
62
1
100
AcDb2dPolyline
66
1
10
0.0
20
0.0
30
0.0
70
0
0
VERTEX
5
4ec
100
AcDbEntity
8
1
100
AcDbVertex
100
AcDb2dVertex
62
1
10
-190.582017
20
926.811350
0
VERTEX
5
4ed
100
AcDbEntity
8
1
100
AcDbVertex
100
AcDb2dVertex
62
1
10
-190.425767
20
927.561350
0
VERTEX
5
4ee
100
AcDbEntity
8
1
100
AcDbVertex
100
AcDb2dVertex
62
1
10
-190.269517
20
926.811350
0
SEQEND
5
4ef
100
AcDbEntity
8
1
0
LINE
5
4f0
100
AcDbEntity
8
1
100
AcDbLine
6
CONTINUOUS
62
1
10
-190.519517
20
927.061350
11
-190.332017
21
927.061350
0
POLYLINE
5
4f1
100
AcDbEntity
8
1
6
CONTINUOUS
62
1
100
AcDb2dPolyline
66
1
10
0.0
20
0.0
30
0.0
70
0
0
VERTEX
5
4f2
100
AcDbEntity
8
1
100
AcDbVertex
100
AcDb2dVertex
62
1
10
-191.582017
20
927.561350
0
VERTEX
5
4f3
100
AcDbEntity
8
1
100
AcDbVertex
100
AcDb2dVertex
62
1
10
-191.582017
20
926.811350
0
VERTEX
5
4f4
100
AcDbEntity
8
1
100
AcDbVertex
100
AcDb2dVertex
62
1
10
-191.269517
20
926.811350
0
SEQEND
5
4f5
100
AcDbEntity
8
1
0
POLYLINE
5
4f6
100
AcDbEntity
8
1
6
CONTINUOUS
62
1
100
AcDb2dPolyline
66
1
10
0.0
20
0.0
30
0.0
70
1
0
VERTEX
5
4f7
100
AcDbEntity
8
1
100
AcDbVertex
100
AcDb2dVertex
62
1
10
-190.957017
20
927.561350
0
VERTEX
5
4f8
100
AcDbEntity
8
1
100
AcDbVertex
100
AcDb2dVertex
62
1
10
-190.894517
20
927.561350
0
VERTEX
5
4f9
100
AcDbEntity
8
1
100
AcDbVertex
100
AcDb2dVertex
62
1
10
-190.832017
20
927.530100
0
VERTEX
5
4fa
100
AcDbEntity
8
1
100
AcDbVertex
100
AcDb2dVertex
62
1
10
-190.800767
20
927.498850
0
VERTEX
5
4fb
100
AcDbEntity
8
1
100
AcDbVertex
100
AcDb2dVertex
62
1
10
-190.769517
20
927.373850
0
VERTEX
5
4fc
100
AcDbEntity
8
1
100
AcDbVertex
100
AcDb2dVertex
62
1
10
-190.769517
20
926.998850
0
VERTEX
5
4fd
100
AcDbEntity
8
1
100
AcDbVertex
100
AcDb2dVertex
62
1
10
-190.800767
20
926.873850
0
VERTEX
5
4fe
100
AcDbEntity
8
1
100
AcDbVertex
100
AcDb2dVertex
62
1
10
-190.832017
20
926.842600
0
VERTEX
5
4ff
100
AcDbEntity
8
1
100
AcDbVertex
100
AcDb2dVertex
62
1
10
-190.894517
20
926.811350
0
VERTEX
5
500
100
AcDbEntity
8
1
100
AcDbVertex
100
AcDb2dVertex
62
1
10
-190.957017
20
926.811350
0
VERTEX
5
501
100
AcDbEntity
8
1
100
AcDbVertex
100
AcDb2dVertex
62
1
10
-191.019517
20
926.842600
0
VERTEX
5
502
100
AcDbEntity
8
1
100
AcDbVertex
100
AcDb2dVertex
62
1
10
-191.050767
20
926.873850
0
VERTEX
5
503
100
AcDbEntity
8
1
100
AcDbVertex
100
AcDb2dVertex
62
1
10
-191.082017
20
926.998850
0
VERTEX
5
504
100
AcDbEntity
8
1
100
AcDbVertex
100
AcDb2dVertex
62
1
10
-191.082017
20
927.373850
0
VERTEX
5
505
100
AcDbEntity
8
1
100
AcDbVertex
100
AcDb2dVertex
62
1
10
-191.050767
20
927.498850
0
VERTEX
5
506
100
AcDbEntity
8
1
100
AcDbVertex
100
AcDb2dVertex
62
1
10
-191.019517
20
927.530100
0
VERTEX
5
507
100
AcDbEntity
8
1
100
AcDbVertex
100
AcDb2dVertex
62
1
10
-190.957017
20
927.561350
0
SEQEND
5
508
100
AcDbEntity
8
1
0
POLYLINE
5
509
100
AcDbEntity
8
1
6
CONTINUOUS
62
1
100
AcDb2dPolyline
66
1
10
0.0
20
0.0
30
0.0
70
0
0
VERTEX
5
50a
100
AcDbEntity
8
1
100
AcDbVertex
100
AcDb2dVertex
62
1
10
-188.082017
20
927.561350
0
VERTEX
5
50b
100
AcDbEntity
8
1
100
AcDbVertex
100
AcDb2dVertex
62
1
10
-188.082017
20
926.811350
0
VERTEX
5
50c
100
AcDbEntity
8
1
100
AcDbVertex
100
AcDb2dVertex
62
1
10
-187.769517
20
926.811350
0
SEQEND
5
50d
100
AcDbEntity
8
1
0
POLYLINE
5
50e
100
AcDbEntity
8
1
6
CONTINUOUS
62
1
100
AcDb2dPolyline
66
1
10
0.0
20
0.0
30
0.0
70
0
0
VERTEX
5
50f
100
AcDbEntity
8
1
100
AcDbVertex
100
AcDb2dVertex
62
1
10
-188.582017
20
927.561350
0
VERTEX
5
510
100
AcDbEntity
8
1
100
AcDbVertex
100
AcDb2dVertex
62
1
10
-188.582017
20
926.811350
0
VERTEX
5
511
100
AcDbEntity
8
1
100
AcDbVertex
100
AcDb2dVertex
62
1
10
-188.269517
20
926.811350
0
SEQEND
5
512
100
AcDbEntity
8
1
0
LINE
5
513
100
AcDbEntity
8
1
100
AcDbLine
6
CONTINUOUS
62
1
10
-176.932017
20
906.586350
11
-176.619517
21
906.586350
0
LINE
5
514
100
AcDbEntity
8
1
100
AcDbLine
6
CONTINUOUS
62
1
10
-178.369517
20
906.961350
11
-178.182017
21
906.961350
0
LINE
5
515
100
AcDbEntity
8
1
100
AcDbLine
6
CONTINUOUS
62
1
10
-178.275767
20
906.961350
11
-178.275767
21
906.211350
0
LINE
5
516
100
AcDbEntity
8
1
100
AcDbLine
6
CONTINUOUS
62
1
10
-178.369517
20
906.211350
11
-178.182017
21
906.211350
0
POLYLINE
5
517
100
AcDbEntity
8
1
6
CONTINUOUS
62
1
100
AcDb2dPolyline
66
1
10
0.0
20
0.0
30
0.0
70
1
0
VERTEX
5
518
100
AcDbEntity
8
1
100
AcDbVertex
100
AcDb2dVertex
62
1
10
-177.307017
20
906.961350
0
VERTEX
5
519
100
AcDbEntity
8
1
100
AcDbVertex
100
AcDb2dVertex
62
1
10
-177.244517
20
906.961350
0
VERTEX
5
51a
100
AcDbEntity
8
1
100
AcDbVertex
100
AcDb2dVertex
62
1
10
-177.182017
20
906.930100
0
VERTEX
5
51b
100
AcDbEntity
8
1
100
AcDbVertex
100
AcDb2dVertex
62
1
10
-177.150767
20
906.898850
0
VERTEX
5
51c
100
AcDbEntity
8
1
100
AcDbVertex
100
AcDb2dVertex
62
1
10
-177.119517
20
906.773850
0
VERTEX
5
51d
100
AcDbEntity
8
1
100
AcDbVertex
100
AcDb2dVertex
62
1
10
-177.119517
20
906.398850
0
VERTEX
5
51e
100
AcDbEntity
8
1
100
AcDbVertex
100
AcDb2dVertex
62
1
10
-177.150767
20
906.273850
0
VERTEX
5
51f
100
AcDbEntity
8
1
100
AcDbVertex
100
AcDb2dVertex
62
1
10
-177.182017
20
906.242600
0
VERTEX
5
520
100
AcDbEntity
8
1
100
AcDbVertex
100
AcDb2dVertex
62
1
10
-177.244517
20
906.211350
0
VERTEX
5
521
100
AcDbEntity
8
1
100
AcDbVertex
100
AcDb2dVertex
62
1
10
-177.307017
20
906.211350
0
VERTEX
5
522
100
AcDbEntity
8
1
100
AcDbVertex
100
AcDb2dVertex
62
1
10
-177.369517
20
906.242600
0
VERTEX
5
523
100
AcDbEntity
8
1
100
AcDbVertex
100
AcDb2dVertex
62
1
10
-177.400767
20
906.273850
0
VERTEX
5
524
100
AcDbEntity
8
1
100
AcDbVertex
100
AcDb2dVertex
62
1
10
-177.432017
20
906.398850
0
VERTEX
5
525
100
AcDbEntity
8
1
100
AcDbVertex
100
AcDb2dVertex
62
1
10
-177.432017
20
906.773850
0
VERTEX
5
526
100
AcDbEntity
8
1
100
AcDbVertex
100
AcDb2dVertex
62
1
10
-177.400767
20
906.898850
0
VERTEX
5
527
100
AcDbEntity
8
1
100
AcDbVertex
100
AcDb2dVertex
62
1
10
-177.369517
20
906.930100
0
VERTEX
5
528
100
AcDbEntity
8
1
100
AcDbVertex
100
AcDb2dVertex
62
1
10
-177.307017
20
906.961350
0
SEQEND
5
529
100
AcDbEntity
8
1
0
LINE
5
52a
100
AcDbEntity
8
1
100
AcDbLine
6
CONTINUOUS
62
1
10
-177.619517
20
906.992600
11
-177.932017
21
906.180100
0
POLYLINE
5
52b
100
AcDbEntity
8
1
6
CONTINUOUS
62
1
100
AcDb2dPolyline
66
1
10
0.0
20
0.0
30
0.0
70
0
0
VERTEX
5
52c
100
AcDbEntity
8
1
100
AcDbVertex
100
AcDb2dVertex
62
1
10
-176.932017
20
915.661350
0
VERTEX
5
52d
100
AcDbEntity
8
1
100
AcDbVertex
100
AcDb2dVertex
62
1
10
-176.932017
20
915.067600
0
VERTEX
5
52e
100
AcDbEntity
8
1
100
AcDbVertex
100
AcDb2dVertex
62
1
10
-176.900767
20
914.973850
0
VERTEX
5
52f
100
AcDbEntity
8
1
100
AcDbVertex
100
AcDb2dVertex
62
1
10
-176.869517
20
914.942600
0
VERTEX
5
530
100
AcDbEntity
8
1
100
AcDbVertex
100
AcDb2dVertex
62
1
10
-176.807017
20
914.911350
0
VERTEX
5
531
100
AcDbEntity
8
1
100
AcDbVertex
100
AcDb2dVertex
62
1
10
-176.744517
20
914.911350
0
VERTEX
5
532
100
AcDbEntity
8
1
100
AcDbVertex
100
AcDb2dVertex
62
1
10
-176.682017
20
914.942600
0
VERTEX
5
533
100
AcDbEntity
8
1
100
AcDbVertex
100
AcDb2dVertex
62
1
10
-176.650767
20
914.973850
0
VERTEX
5
534
100
AcDbEntity
8
1
100
AcDbVertex
100
AcDb2dVertex
62
1
10
-176.619517
20
915.067600
0
VERTEX
5
535
100
AcDbEntity
8
1
100
AcDbVertex
100
AcDb2dVertex
62
1
10
-176.619517
20
915.661350
0
SEQEND
5
536
100
AcDbEntity
8
1
0
LINE
5
537
100
AcDbEntity
8
1
100
AcDbLine
6
CONTINUOUS
62
1
10
-177.432017
20
915.661350
11
-177.432017
21
914.911350
0
POLYLINE
5
538
100
AcDbEntity
8
1
6
CONTINUOUS
62
1
100
AcDb2dPolyline
66
1
10
0.0
20
0.0
30
0.0
70
0
0
VERTEX
5
539
100
AcDbEntity
8
1
100
AcDbVertex
100
AcDb2dVertex
62
1
10
-177.432017
20
915.661350
0
VERTEX
5
53a
100
AcDbEntity
8
1
100
AcDbVertex
100
AcDb2dVertex
62
1
10
-177.307017
20
915.661350
0
VERTEX
5
53b
100
AcDbEntity
8
1
100
AcDbVertex
100
AcDb2dVertex
62
1
10
-177.213267
20
915.630100
0
VERTEX
5
53c
100
AcDbEntity
8
1
100
AcDbVertex
100
AcDb2dVertex
62
1
10
-177.150767
20
915.567600
0
VERTEX
5
53d
100
AcDbEntity
8
1
100
AcDbVertex
100
AcDb2dVertex
62
1
10
-177.119517
20
915.505100
0
VERTEX
5
53e
100
AcDbEntity
8
1
100
AcDbVertex
100
AcDb2dVertex
62
1
10
-177.119517
20
915.411350
0
VERTEX
5
53f
100
AcDbEntity
8
1
100
AcDbVertex
100
AcDb2dVertex
62
1
10
-177.150767
20
915.348850
0
VERTEX
5
540
100
AcDbEntity
8
1
100
AcDbVertex
100
AcDb2dVertex
62
1
10
-177.213267
20
915.286350
0
VERTEX
5
541
100
AcDbEntity
8
1
100
AcDbVertex
100
AcDb2dVertex
62
1
10
-177.307017
20
915.255100
0
VERTEX
5
542
100
AcDbEntity
8
1
100
AcDbVertex
100
AcDb2dVertex
62
1
10
-177.432017
20
915.255100
0
SEQEND
5
543
100
AcDbEntity
8
1
0
LINE
5
544
100
AcDbEntity
8
1
100
AcDbLine
6
CONTINUOUS
62
1
10
-177.932017
20
915.661350
11
-177.619517
21
915.661350
0
LINE
5
545
100
AcDbEntity
8
1
100
AcDbLine
6
CONTINUOUS
62
1
10
-177.775767
20
915.661350
11
-177.775767
21
914.911350
0
CIRCLE
5
546
100
AcDbEntity
8
1
100
AcDbCircle
6
DOT2
62
5
10
-182.029993
20
913.363638
40
0.260000
0
CIRCLE
5
547
100
AcDbEntity
8
1
100
AcDbCircle
6
CONTINUOUS
62
5
10
-182.029993
20
913.363638
40
0.156000
0
POLYLINE
5
548
100
AcDbEntity
8
1
6
CONTINUOUS
62
5
100
AcDb2dPolyline
66
1
10
0.0
20
0.0
30
0.0
70
1
0
VERTEX
5
549
100
AcDbEntity
8
1
100
AcDbVertex
100
AcDb2dVertex
62
5
10
-181.529993
20
913.652313
0
VERTEX
5
54a
100
AcDbEntity
8
1
100
AcDbVertex
100
AcDb2dVertex
62
5
10
-182.029993
20
913.940988
0
VERTEX
5
54b
100
AcDbEntity
8
1
100
AcDbVertex
100
AcDb2dVertex
62
5
10
-182.529993
20
913.652313
0
VERTEX
5
54c
100
AcDbEntity
8
1
100
AcDbVertex
100
AcDb2dVertex
62
5
10
-182.529993
20
913.074962
0
VERTEX
5
54d
100
AcDbEntity
8
1
100
AcDbVertex
100
AcDb2dVertex
62
5
10
-182.029993
20
912.786287
0
VERTEX
5
54e
100
AcDbEntity
8
1
100
AcDbVertex
100
AcDb2dVertex
62
5
10
-181.529993
20
913.074962
0
SEQEND
5
54f
100
AcDbEntity
8
1
0
LINE
5
550
100
AcDbEntity
8
1
100
AcDbLine
6
CONTINUOUS
62
1
10
-189.332017
20
916.986350
11
-189.019517
21
916.986350
0
CIRCLE
5
551
100
AcDbEntity
8
1
100
AcDbCircle
6
CONTINUOUS
62
5
10
-192.007017
20
911.061350
40
0.630000
0
LINE
5
552
100
AcDbEntity
8
1
100
AcDbLine
6
CONTINUOUS
62
5
10
-191.561539
20
911.506827
11
-192.452494
21
910.615873
0
LINE
5
553
100
AcDbEntity
8
1
100
AcDbLine
6
CONTINUOUS
62
5
10
-191.752458
20
910.806792
11
-192.261575
21
911.315908
0
CIRCLE
5
554
100
AcDbEntity
8
1
100
AcDbCircle
6
CONTINUOUS
62
5
10
-192.007017
20
915.661350
40
0.630000
0
LINE
5
555
100
AcDbEntity
8
1
100
AcDbLine
6
CONTINUOUS
62
5
10
-191.561539
20
916.106827
11
-192.452494
21
915.215873
0
LINE
5
556
100
AcDbEntity
8
1
100
AcDbLine
6
CONTINUOUS
62
5
10
-191.752458
20
915.406792
11
-192.261575
21
915.915908
0
POLYLINE
5
557
100
AcDbEntity
8
1
6
CONTINUOUS
62
1
100
AcDb2dPolyline
66
1
10
0.0
20
0.0
30
0.0
70
1
0
VERTEX
5
558
100
AcDbEntity
8
1
100
AcDbVertex
100
AcDb2dVertex
62
1
10
-189.707017
20
917.361350
0
VERTEX
5
559
100
AcDbEntity
8
1
100
AcDbVertex
100
AcDb2dVertex
62
1
10
-189.644517
20
917.361350
0
VERTEX
5
55a
100
AcDbEntity
8
1
100
AcDbVertex
100
AcDb2dVertex
62
1
10
-189.582017
20
917.330100
0
VERTEX
5
55b
100
AcDbEntity
8
1
100
AcDbVertex
100
AcDb2dVertex
62
1
10
-189.550767
20
917.298850
0
VERTEX
5
55c
100
AcDbEntity
8
1
100
AcDbVertex
100
AcDb2dVertex
62
1
10
-189.519517
20
917.173850
0
VERTEX
5
55d
100
AcDbEntity
8
1
100
AcDbVertex
100
AcDb2dVertex
62
1
10
-189.519517
20
916.798850
0
VERTEX
5
55e
100
AcDbEntity
8
1
100
AcDbVertex
100
AcDb2dVertex
62
1
10
-189.550767
20
916.673850
0
VERTEX
5
55f
100
AcDbEntity
8
1
100
AcDbVertex
100
AcDb2dVertex
62
1
10
-189.582017
20
916.642600
0
VERTEX
5
560
100
AcDbEntity
8
1
100
AcDbVertex
100
AcDb2dVertex
62
1
10
-189.644517
20
916.611350
0
VERTEX
5
561
100
AcDbEntity
8
1
100
AcDbVertex
100
AcDb2dVertex
62
1
10
-189.707017
20
916.611350
0
VERTEX
5
562
100
AcDbEntity
8
1
100
AcDbVertex
100
AcDb2dVertex
62
1
10
-189.769517
20
916.642600
0
VERTEX
5
563
100
AcDbEntity
8
1
100
AcDbVertex
100
AcDb2dVertex
62
1
10
-189.800767
20
916.673850
0
VERTEX
5
564
100
AcDbEntity
8
1
100
AcDbVertex
100
AcDb2dVertex
62
1
10
-189.832017
20
916.798850
0
VERTEX
5
565
100
AcDbEntity
8
1
100
AcDbVertex
100
AcDb2dVertex
62
1
10
-189.832017
20
917.173850
0
VERTEX
5
566
100
AcDbEntity
8
1
100
AcDbVertex
100
AcDb2dVertex
62
1
10
-189.800767
20
917.298850
0
VERTEX
5
567
100
AcDbEntity
8
1
100
AcDbVertex
100
AcDb2dVertex
62
1
10
-189.769517
20
917.330100
0
VERTEX
5
568
100
AcDbEntity
8
1
100
AcDbVertex
100
AcDb2dVertex
62
1
10
-189.707017
20
917.361350
0
SEQEND
5
569
100
AcDbEntity
8
1
0
POLYLINE
5
56a
100
AcDbEntity
8
1
6
CONTINUOUS
62
1
100
AcDb2dPolyline
66
1
10
0.0
20
0.0
30
0.0
70
0
0
VERTEX
5
56b
100
AcDbEntity
8
1
100
AcDbVertex
100
AcDb2dVertex
62
1
10
-188.519517
20
917.205100
0
VERTEX
5
56c
100
AcDbEntity
8
1
100
AcDbVertex
100
AcDb2dVertex
62
1
10
-188.582017
20
917.330100
0
VERTEX
5
56d
100
AcDbEntity
8
1
100
AcDbVertex
100
AcDb2dVertex
62
1
10
-188.675767
20
917.361350
0
VERTEX
5
56e
100
AcDbEntity
8
1
100
AcDbVertex
100
AcDb2dVertex
62
1
10
-188.738267
20
917.361350
0
VERTEX
5
56f
100
AcDbEntity
8
1
100
AcDbVertex
100
AcDb2dVertex
62
1
10
-188.800767
20
917.330100
0
VERTEX
5
570
100
AcDbEntity
8
1
100
AcDbVertex
100
AcDb2dVertex
62
1
10
-188.863267
20
917.236350
0
VERTEX
5
571
100
AcDbEntity
8
1
100
AcDbVertex
100
AcDb2dVertex
62
1
10
-188.863267
20
917.142600
0
VERTEX
5
572
100
AcDbEntity
8
1
100
AcDbVertex
100
AcDb2dVertex
62
1
10
-188.800767
20
917.048850
0
VERTEX
5
573
100
AcDbEntity
8
1
100
AcDbVertex
100
AcDb2dVertex
62
1
10
-188.582017
20
916.923850
0
VERTEX
5
574
100
AcDbEntity
8
1
100
AcDbVertex
100
AcDb2dVertex
62
1
10
-188.519517
20
916.830100
0
VERTEX
5
575
100
AcDbEntity
8
1
100
AcDbVertex
100
AcDb2dVertex
62
1
10
-188.519517
20
916.736350
0
VERTEX
5
576
100
AcDbEntity
8
1
100
AcDbVertex
100
AcDb2dVertex
62
1
10
-188.582017
20
916.642600
0
VERTEX
5
577
100
AcDbEntity
8
1
100
AcDbVertex
100
AcDb2dVertex
62
1
10
-188.675767
20
916.611350
0
VERTEX
5
578
100
AcDbEntity
8
1
100
AcDbVertex
100
AcDb2dVertex
62
1
10
-188.738267
20
916.611350
0
VERTEX
5
579
100
AcDbEntity
8
1
100
AcDbVertex
100
AcDb2dVertex
62
1
10
-188.832017
20
916.673850
0
VERTEX
5
57a
100
AcDbEntity
8
1
100
AcDbVertex
100
AcDb2dVertex
62
1
10
-188.863267
20
916.798850
0
SEQEND
5
57b
100
AcDbEntity
8
1
0
LINE
5
57c
100
AcDbEntity
8
1
100
AcDbLine
6
CONTINUOUS
62
1
10
-190.769517
20
917.361350
11
-190.582017
21
917.361350
0
LINE
5
57d
100
AcDbEntity
8
1
100
AcDbLine
6
CONTINUOUS
62
1
10
-190.675767
20
917.361350
11
-190.675767
21
916.611350
0
LINE
5
57e
100
AcDbEntity
8
1
100
AcDbLine
6
CONTINUOUS
62
1
10
-190.769517
20
916.611350
11
-190.582017
21
916.611350
0
LINE
5
57f
100
AcDbEntity
8
1
100
AcDbLine
6
CONTINUOUS
62
1
10
-190.019517
20
917.392600
11
-190.332017
21
916.580100
0
CIRCLE
5
580
100
AcDbEntity
8
1
100
AcDbCircle
6
CONTINUOUS
62
5
10
-187.407017
20
911.061350
40
0.630000
0
LINE
5
581
100
AcDbEntity
8
1
100
AcDbLine
6
CONTINUOUS
62
5
10
-186.961539
20
911.506827
11
-187.852494
21
910.615873
0
LINE
5
582
100
AcDbEntity
8
1
100
AcDbLine
6
CONTINUOUS
62
5
10
-187.152458
20
910.806792
11
-187.661575
21
911.315908
0
CIRCLE
5
583
100
AcDbEntity
8
1
100
AcDbCircle
6
CONTINUOUS
62
5
10
-187.407017
20
915.661350
40
0.630000
0
LINE
5
584
100
AcDbEntity
8
1
100
AcDbLine
6
CONTINUOUS
62
5
10
-186.961539
20
916.106827
11
-187.852494
21
915.215873
0
LINE
5
585
100
AcDbEntity
8
1
100
AcDbLine
6
CONTINUOUS
62
5
10
-187.152458
20
915.406792
11
-187.661575
21
915.915908
0
ARC
5
586
100
AcDbEntity
8
1
100
AcDbCircle
6
CONTINUOUS
62
5
10
-187.407017
20
911.061350
40
0.600000
100
AcDbArc
50
-89.999999
51
0.000000
0
LINE
5
587
100
AcDbEntity
8
1
100
AcDbLine
6
CONTINUOUS
62
5
10
-186.807017
20
911.061350
11
-186.807017
21
915.661350
0
ARC
5
588
100
AcDbEntity
8
1
100
AcDbCircle
6
CONTINUOUS
62
5
10
-187.407017
20
915.661350
40
0.600000
100
AcDbArc
50
0.000000
51
89.999999
0
LINE
5
589
100
AcDbEntity
8
1
100
AcDbLine
6
CONTINUOUS
62
5
10
-187.407017
20
916.261350
11
-192.007017
21
916.261350
0
ARC
5
58a
100
AcDbEntity
8
1
100
AcDbCircle
6
CONTINUOUS
62
5
10
-192.007017
20
915.661350
40
0.600000
100
AcDbArc
50
89.999999
51
179.999998
0
LINE
5
58b
100
AcDbEntity
8
1
100
AcDbLine
6
CONTINUOUS
62
5
10
-192.607017
20
915.661350
11
-192.607017
21
911.061350
0
ARC
5
58c
100
AcDbEntity
8
1
100
AcDbCircle
6
CONTINUOUS
62
5
10
-192.007017
20
911.061350
40
0.600000
100
AcDbArc
50
179.999998
51
-89.999999
0
LINE
5
58d
100
AcDbEntity
8
1
100
AcDbLine
6
CONTINUOUS
62
5
10
-192.007017
20
910.461350
11
-187.407017
21
910.461350
0
CIRCLE
5
58e
100
AcDbEntity
8
1
100
AcDbCircle
6
CONTINUOUS
62
5
10
-189.707017
20
913.361350
40
2.200000
0
ARC
5
58f
100
AcDbEntity
8
1
100
AcDbCircle
6
CONTINUOUS
62
5
10
-189.707017
20
913.361350
40
1.800000
100
AcDbArc
50
0.000000
51
179.999998
0
LINE
5
590
100
AcDbEntity
8
1
100
AcDbLine
6
CONTINUOUS
62
5
10
-191.507017
20
913.361350
11
-191.507017
21
913.361350
0
ARC
5
591
100
AcDbEntity
8
1
100
AcDbCircle
6
CONTINUOUS
62
5
10
-189.707017
20
913.361350
40
1.800000
100
AcDbArc
50
179.999998
51
0.000000
0
LINE
5
592
100
AcDbEntity
8
1
100
AcDbLine
6
CONTINUOUS
62
5
10
-187.907017
20
913.361350
11
-187.907017
21
913.361350
0
LINE
5
593
100
AcDbEntity
8
1
100
AcDbLine
6
DOT2
62
5
10
-182.707017
20
936.570105
11
-182.707017
21
935.425983
0
POLYLINE
5
594
100
AcDbEntity
8
1
6
CONTINUOUS
62
1
100
AcDb2dPolyline
66
1
10
0.0
20
0.0
30
0.0
70
0
0
VERTEX
5
595
100
AcDbEntity
8
1
100
AcDbVertex
100
AcDb2dVertex
62
1
10
-176.369517
20
906.898850
0
VERTEX
5
596
100
AcDbEntity
8
1
100
AcDbVertex
100
AcDb2dVertex
62
1
10
-176.275767
20
906.961350
0
VERTEX
5
597
100
AcDbEntity
8
1
100
AcDbVertex
100
AcDb2dVertex
62
1
10
-176.275767
20
906.211350
0
SEQEND
5
598
100
AcDbEntity
8
1
0
LINE
5
599
100
AcDbEntity
8
1
100
AcDbLine
6
CONTINUOUS
62
1
10
-176.338267
20
906.211350
11
-176.213267
21
906.211350
0
ARC
5
59a
100
AcDbEntity
8
1
100
AcDbCircle
6
CONTINUOUS
62
5
10
-173.507017
20
914.161350
40
0.400000
100
AcDbArc
50
0.000000
51
89.999999
0
POLYLINE
5
59b
100
AcDbEntity
8
1
6
CONTINUOUS
62
5
100
AcDb2dPolyline
66
1
10
0.0
20
0.0
30
0.0
70
0
0
VERTEX
5
59c
100
AcDbEntity
8
1
100
AcDbVertex
100
AcDb2dVertex
62
5
10
-173.507017
20
914.561350
0
VERTEX
5
59d
100
AcDbEntity
8
1
100
AcDbVertex
100
AcDb2dVertex
62
5
10
-177.307017
20
914.561350
0
VERTEX
5
59e
100
AcDbEntity
8
1
100
AcDbVertex
100
AcDb2dVertex
62
5
10
-181.107016
20
914.561350
0
SEQEND
5
59f
100
AcDbEntity
8
1
0
ARC
5
5a0
100
AcDbEntity
8
1
100
AcDbCircle
6
CONTINUOUS
62
5
10
-181.107016
20
914.161350
40
0.400000
100
AcDbArc
50
89.999999
51
179.999998
0
POLYLINE
5
5a1
100
AcDbEntity
8
1
6
CONTINUOUS
62
5
100
AcDb2dPolyline
66
1
10
0.0
20
0.0
30
0.0
70
0
0
VERTEX
5
5a2
100
AcDbEntity
8
1
100
AcDbVertex
100
AcDb2dVertex
62
5
10
-181.507016
20
914.161350
0
VERTEX
5
5a3
100
AcDbEntity
8
1
100
AcDbVertex
100
AcDb2dVertex
62
5
10
-181.507016
20
913.681350
0
VERTEX
5
5a4
100
AcDbEntity
8
1
100
AcDbVertex
100
AcDb2dVertex
62
5
10
-181.580287
20
913.681350
0
SEQEND
5
5a5
100
AcDbEntity
8
1
0
POLYLINE
5
5a6
100
AcDbEntity
8
1
6
CONTINUOUS
62
5
100
AcDb2dPolyline
66
1
10
0.0
20
0.0
30
0.0
70
0
0
VERTEX
5
5a7
100
AcDbEntity
8
1
100
AcDbVertex
100
AcDb2dVertex
62
5
10
-173.071698
20
913.681350
0
VERTEX
5
5a8
100
AcDbEntity
8
1
100
AcDbVertex
100
AcDb2dVertex
62
5
10
-173.107017
20
913.681350
0
VERTEX
5
5a9
100
AcDbEntity
8
1
100
AcDbVertex
100
AcDb2dVertex
62
5
10
-173.107017
20
914.161350
0
SEQEND
5
5aa
100
AcDbEntity
8
1
0
ARC
5
5ab
100
AcDbEntity
8
1
100
AcDbCircle
6
CONTINUOUS
62
5
10
-180.621279
20
912.981638
40
0.400000
100
AcDbArc
50
-169.999998
51
-89.999999
0
LINE
5
5ac
100
AcDbEntity
8
1
100
AcDbLine
6
CONTINUOUS
62
5
10
-180.621279
20
912.581638
11
-174.030706
21
912.581638
0
ARC
5
5ad
100
AcDbEntity
8
1
100
AcDbCircle
6
CONTINUOUS
62
5
10
-174.030706
20
912.981638
40
0.400000
100
AcDbArc
50
-89.999999
51
-10.000000
0
LINE
5
5ae
100
AcDbEntity
8
1
100
AcDbLine
6
CONTINUOUS
62
5
10
-173.636783
20
912.912178
11
-173.502069
21
913.676178
0
ARC
5
5af
100
AcDbEntity
8
1
100
AcDbCircle
6
CONTINUOUS
62
5
10
-173.895993
20
913.745638
40
0.400000
100
AcDbArc
50
-10.000000
51
89.999999
0
LINE
5
5b0
100
AcDbEntity
8
1
100
AcDbLine
6
CONTINUOUS
62
5
10
-173.895993
20
914.145638
11
-180.755993
21
914.145638
0
ARC
5
5b1
100
AcDbEntity
8
1
100
AcDbCircle
6
CONTINUOUS
62
5
10
-180.755993
20
913.745638
40
0.400000
100
AcDbArc
50
89.999999
51
-169.999998
0
LINE
5
5b2
100
AcDbEntity
8
1
100
AcDbLine
6
CONTINUOUS
62
5
10
-181.149916
20
913.676178
11
-181.015202
21
912.912178
0
ARC
5
5b3
100
AcDbEntity
8
1
100
AcDbCircle
6
CONTINUOUS
62
5
10
-181.107016
20
912.561350
40
0.400000
100
AcDbArc
50
179.999998
51
-89.999999
0
POLYLINE
5
5b4
100
AcDbEntity
8
1
6
CONTINUOUS
62
5
100
AcDb2dPolyline
66
1
10
0.0
20
0.0
30
0.0
70
0
0
VERTEX
5
5b5
100
AcDbEntity
8
1
100
AcDbVertex
100
AcDb2dVertex
62
5
10
-181.107016
20
912.161350
0
VERTEX
5
5b6
100
AcDbEntity
8
1
100
AcDbVertex
100
AcDb2dVertex
62
5
10
-177.307017
20
912.161350
0
VERTEX
5
5b7
100
AcDbEntity
8
1
100
AcDbVertex
100
AcDb2dVertex
62
5
10
-173.507017
20
912.161350
0
SEQEND
5
5b8
100
AcDbEntity
8
1
0
ARC
5
5b9
100
AcDbEntity
8
1
100
AcDbCircle
6
CONTINUOUS
62
5
10
-173.507017
20
912.561350
40
0.400000
100
AcDbArc
50
-89.999999
51
0.000000
0
POLYLINE
5
5ba
100
AcDbEntity
8
1
6
CONTINUOUS
62
5
100
AcDb2dPolyline
66
1
10
0.0
20
0.0
30
0.0
70
0
0
VERTEX
5
5bb
100
AcDbEntity
8
1
100
AcDbVertex
100
AcDb2dVertex
62
5
10
-173.107017
20
912.561350
0
VERTEX
5
5bc
100
AcDbEntity
8
1
100
AcDbVertex
100
AcDb2dVertex
62
5
10
-173.107017
20
913.041350
0
VERTEX
5
5bd
100
AcDbEntity
8
1
100
AcDbVertex
100
AcDb2dVertex
62
5
10
-173.063774
20
913.041350
0
SEQEND
5
5be
100
AcDbEntity
8
1
0
POLYLINE
5
5bf
100
AcDbEntity
8
1
6
CONTINUOUS
62
5
100
AcDb2dPolyline
66
1
10
0.0
20
0.0
30
0.0
70
0
0
VERTEX
5
5c0
100
AcDbEntity
8
1
100
AcDbVertex
100
AcDb2dVertex
62
5
10
-181.588211
20
913.041350
0
VERTEX
5
5c1
100
AcDbEntity
8
1
100
AcDbVertex
100
AcDb2dVertex
62
5
10
-181.507016
20
913.041350
0
VERTEX
5
5c2
100
AcDbEntity
8
1
100
AcDbVertex
100
AcDb2dVertex
62
5
10
-181.507016
20
912.561350
0
SEQEND
5
5c3
100
AcDbEntity
8
1
0
POLYLINE
5
5c4
100
AcDbEntity
8
1
6
CONTINUOUS
62
1
100
AcDb2dPolyline
66
1
10
0.0
20
0.0
30
0.0
70
0
0
VERTEX
5
5c5
100
AcDbEntity
8
1
100
AcDbVertex
100
AcDb2dVertex
62
1
10
-144.919517
20
897.911350
0
VERTEX
5
5c6
100
AcDbEntity
8
1
100
AcDbVertex
100
AcDb2dVertex
62
1
10
-145.232017
20
897.911350
0
VERTEX
5
5c7
100
AcDbEntity
8
1
100
AcDbVertex
100
AcDb2dVertex
62
1
10
-145.232017
20
897.161350
0
VERTEX
5
5c8
100
AcDbEntity
8
1
100
AcDbVertex
100
AcDb2dVertex
62
1
10
-144.888267
20
897.161350
0
SEQEND
5
5c9
100
AcDbEntity
8
1
0
LINE
5
5ca
100
AcDbEntity
8
1
100
AcDbLine
6
CONTINUOUS
62
1
10
-145.232017
20
897.536350
11
-144.950767
21
897.536350
0
POLYLINE
5
5cb
100
AcDbEntity
8
1
6
CONTINUOUS
62
1
100
AcDb2dPolyline
66
1
10
0.0
20
0.0
30
0.0
70
0
0
VERTEX
5
5cc
100
AcDbEntity
8
1
100
AcDbVertex
100
AcDb2dVertex
62
1
10
-145.419517
20
897.755100
0
VERTEX
5
5cd
100
AcDbEntity
8
1
100
AcDbVertex
100
AcDb2dVertex
62
1
10
-145.450767
20
897.848850
0
VERTEX
5
5ce
100
AcDbEntity
8
1
100
AcDbVertex
100
AcDb2dVertex
62
1
10
-145.513267
20
897.911350
0
VERTEX
5
5cf
100
AcDbEntity
8
1
100
AcDbVertex
100
AcDb2dVertex
62
1
10
-145.607017
20
897.911350
0
VERTEX
5
5d0
100
AcDbEntity
8
1
100
AcDbVertex
100
AcDb2dVertex
62
1
10
-145.700767
20
897.817600
0
VERTEX
5
5d1
100
AcDbEntity
8
1
100
AcDbVertex
100
AcDb2dVertex
62
1
10
-145.732017
20
897.661350
0
VERTEX
5
5d2
100
AcDbEntity
8
1
100
AcDbVertex
100
AcDb2dVertex
62
1
10
-145.732017
20
897.411350
0
VERTEX
5
5d3
100
AcDbEntity
8
1
100
AcDbVertex
100
AcDb2dVertex
62
1
10
-145.700767
20
897.255100
0
VERTEX
5
5d4
100
AcDbEntity
8
1
100
AcDbVertex
100
AcDb2dVertex
62
1
10
-145.607017
20
897.161350
0
VERTEX
5
5d5
100
AcDbEntity
8
1
100
AcDbVertex
100
AcDb2dVertex
62
1
10
-145.513267
20
897.161350
0
VERTEX
5
5d6
100
AcDbEntity
8
1
100
AcDbVertex
100
AcDb2dVertex
62
1
10
-145.450767
20
897.223850
0
VERTEX
5
5d7
100
AcDbEntity
8
1
100
AcDbVertex
100
AcDb2dVertex
62
1
10
-145.388267
20
897.380100
0
SEQEND
5
5d8
100
AcDbEntity
8
1
0
POLYLINE
5
5d9
100
AcDbEntity
8
1
6
CONTINUOUS
62
1
100
AcDb2dPolyline
66
1
10
0.0
20
0.0
30
0.0
70
0
0
VERTEX
5
5da
100
AcDbEntity
8
1
100
AcDbVertex
100
AcDb2dVertex
62
1
10
-149.732017
20
897.161350
0
VERTEX
5
5db
100
AcDbEntity
8
1
100
AcDbVertex
100
AcDb2dVertex
62
1
10
-149.575767
20
897.911350
0
VERTEX
5
5dc
100
AcDbEntity
8
1
100
AcDbVertex
100
AcDb2dVertex
62
1
10
-149.419517
20
897.161350
0
SEQEND
5
5dd
100
AcDbEntity
8
1
0
LINE
5
5de
100
AcDbEntity
8
1
100
AcDbLine
6
CONTINUOUS
62
1
10
-149.669517
20
897.411350
11
-149.482017
21
897.411350
0
POLYLINE
5
5df
100
AcDbEntity
8
1
6
CONTINUOUS
62
1
100
AcDb2dPolyline
66
1
10
0.0
20
0.0
30
0.0
70
0
0
VERTEX
5
5e0
100
AcDbEntity
8
1
100
AcDbVertex
100
AcDb2dVertex
62
1
10
-150.232017
20
897.161350
0
VERTEX
5
5e1
100
AcDbEntity
8
1
100
AcDbVertex
100
AcDb2dVertex
62
1
10
-150.232017
20
897.911350
0
VERTEX
5
5e2
100
AcDbEntity
8
1
100
AcDbVertex
100
AcDb2dVertex
62
1
10
-150.075767
20
897.161350
0
VERTEX
5
5e3
100
AcDbEntity
8
1
100
AcDbVertex
100
AcDb2dVertex
62
1
10
-149.919517
20
897.911350
0
VERTEX
5
5e4
100
AcDbEntity
8
1
100
AcDbVertex
100
AcDb2dVertex
62
1
10
-149.919517
20
897.161350
0
SEQEND
5
5e5
100
AcDbEntity
8
1
0
LINE
5
5e6
100
AcDbEntity
8
1
100
AcDbLine
6
CONTINUOUS
62
1
10
-148.232017
20
897.911350
11
-147.919517
21
897.911350
0
LINE
5
5e7
100
AcDbEntity
8
1
100
AcDbLine
6
CONTINUOUS
62
1
10
-148.075767
20
897.911350
11
-148.075767
21
897.161350
0
POLYLINE
5
5e8
100
AcDbEntity
8
1
6
CONTINUOUS
62
1
100
AcDb2dPolyline
66
1
10
0.0
20
0.0
30
0.0
70
0
0
VERTEX
5
5e9
100
AcDbEntity
8
1
100
AcDbVertex
100
AcDb2dVertex
62
1
10
-148.732017
20
897.161350
0
VERTEX
5
5ea
100
AcDbEntity
8
1
100
AcDbVertex
100
AcDb2dVertex
62
1
10
-148.732017
20
897.911350
0
VERTEX
5
5eb
100
AcDbEntity
8
1
100
AcDbVertex
100
AcDb2dVertex
62
1
10
-148.419517
20
897.161350
0
VERTEX
5
5ec
100
AcDbEntity
8
1
100
AcDbVertex
100
AcDb2dVertex
62
1
10
-148.419517
20
897.911350
0
SEQEND
5
5ed
100
AcDbEntity
8
1
0
LINE
5
5ee
100
AcDbEntity
8
1
100
AcDbLine
6
CONTINUOUS
62
1
10
-149.169517
20
897.911350
11
-148.982017
21
897.911350
0
LINE
5
5ef
100
AcDbEntity
8
1
100
AcDbLine
6
CONTINUOUS
62
1
10
-149.075767
20
897.911350
11
-149.075767
21
897.161350
0
LINE
5
5f0
100
AcDbEntity
8
1
100
AcDbLine
6
CONTINUOUS
62
1
10
-149.169517
20
897.161350
11
-148.982017
21
897.161350
0
POLYLINE
5
5f1
100
AcDbEntity
8
1
6
CONTINUOUS
62
1
100
AcDb2dPolyline
66
1
10
0.0
20
0.0
30
0.0
70
0
0
VERTEX
5
5f2
100
AcDbEntity
8
1
100
AcDbVertex
100
AcDb2dVertex
62
1
10
-147.232017
20
897.161350
0
VERTEX
5
5f3
100
AcDbEntity
8
1
100
AcDbVertex
100
AcDb2dVertex
62
1
10
-147.232017
20
897.911350
0
VERTEX
5
5f4
100
AcDbEntity
8
1
100
AcDbVertex
100
AcDb2dVertex
62
1
10
-146.919517
20
897.161350
0
VERTEX
5
5f5
100
AcDbEntity
8
1
100
AcDbVertex
100
AcDb2dVertex
62
1
10
-146.919517
20
897.911350
0
SEQEND
5
5f6
100
AcDbEntity
8
1
0
POLYLINE
5
5f7
100
AcDbEntity
8
1
6
CONTINUOUS
62
1
100
AcDb2dPolyline
66
1
10
0.0
20
0.0
30
0.0
70
0
0
VERTEX
5
5f8
100
AcDbEntity
8
1
100
AcDbVertex
100
AcDb2dVertex
62
1
10
-147.419517
20
897.911350
0
VERTEX
5
5f9
100
AcDbEntity
8
1
100
AcDbVertex
100
AcDb2dVertex
62
1
10
-147.732017
20
897.911350
0
VERTEX
5
5fa
100
AcDbEntity
8
1
100
AcDbVertex
100
AcDb2dVertex
62
1
10
-147.732017
20
897.161350
0
VERTEX
5
5fb
100
AcDbEntity
8
1
100
AcDbVertex
100
AcDb2dVertex
62
1
10
-147.388267
20
897.161350
0
SEQEND
5
5fc
100
AcDbEntity
8
1
0
LINE
5
5fd
100
AcDbEntity
8
1
100
AcDbLine
6
CONTINUOUS
62
1
10
-147.732017
20
897.536350
11
-147.450767
21
897.536350
0
POLYLINE
5
5fe
100
AcDbEntity
8
1
6
CONTINUOUS
62
1
100
AcDb2dPolyline
66
1
10
0.0
20
0.0
30
0.0
70
0
0
VERTEX
5
5ff
100
AcDbEntity
8
1
100
AcDbVertex
100
AcDb2dVertex
62
1
10
-146.732017
20
897.161350
0
VERTEX
5
600
100
AcDbEntity
8
1
100
AcDbVertex
100
AcDb2dVertex
62
1
10
-146.575767
20
897.911350
0
VERTEX
5
601
100
AcDbEntity
8
1
100
AcDbVertex
100
AcDb2dVertex
62
1
10
-146.419517
20
897.161350
0
SEQEND
5
602
100
AcDbEntity
8
1
0
LINE
5
603
100
AcDbEntity
8
1
100
AcDbLine
6
CONTINUOUS
62
1
10
-146.669517
20
897.411350
11
-146.482017
21
897.411350
0
POLYLINE
5
604
100
AcDbEntity
8
1
6
CONTINUOUS
62
1
100
AcDb2dPolyline
66
1
10
0.0
20
0.0
30
0.0
70
0
0
VERTEX
5
605
100
AcDbEntity
8
1
100
AcDbVertex
100
AcDb2dVertex
62
1
10
-146.232017
20
897.161350
0
VERTEX
5
606
100
AcDbEntity
8
1
100
AcDbVertex
100
AcDb2dVertex
62
1
10
-146.232017
20
897.911350
0
VERTEX
5
607
100
AcDbEntity
8
1
100
AcDbVertex
100
AcDb2dVertex
62
1
10
-145.919517
20
897.161350
0
VERTEX
5
608
100
AcDbEntity
8
1
100
AcDbVertex
100
AcDb2dVertex
62
1
10
-145.919517
20
897.911350
0
SEQEND
5
609
100
AcDbEntity
8
1
0
CIRCLE
5
60a
100
AcDbEntity
8
1
100
AcDbCircle
6
DOT2
62
5
10
-162.343017
20
904.061350
40
0.250000
0
CIRCLE
5
60b
100
AcDbEntity
8
1
100
AcDbCircle
6
CONTINUOUS
62
5
10
-162.343017
20
904.061350
40
0.150000
0
POLYLINE
5
60c
100
AcDbEntity
8
1
6
CONTINUOUS
62
1
100
AcDb2dPolyline
66
1
10
0.0
20
0.0
30
0.0
70
0
0
VERTEX
5
60d
100
AcDbEntity
8
1
100
AcDbVertex
100
AcDb2dVertex
62
1
10
-165.369517
20
898.085100
0
VERTEX
5
60e
100
AcDbEntity
8
1
100
AcDbVertex
100
AcDb2dVertex
62
1
10
-165.400767
20
898.178850
0
VERTEX
5
60f
100
AcDbEntity
8
1
100
AcDbVertex
100
AcDb2dVertex
62
1
10
-165.463267
20
898.241350
0
VERTEX
5
610
100
AcDbEntity
8
1
100
AcDbVertex
100
AcDb2dVertex
62
1
10
-165.557017
20
898.241350
0
VERTEX
5
611
100
AcDbEntity
8
1
100
AcDbVertex
100
AcDb2dVertex
62
1
10
-165.650767
20
898.147600
0
VERTEX
5
612
100
AcDbEntity
8
1
100
AcDbVertex
100
AcDb2dVertex
62
1
10
-165.682017
20
897.991350
0
VERTEX
5
613
100
AcDbEntity
8
1
100
AcDbVertex
100
AcDb2dVertex
62
1
10
-165.682017
20
897.741350
0
VERTEX
5
614
100
AcDbEntity
8
1
100
AcDbVertex
100
AcDb2dVertex
62
1
10
-165.650767
20
897.585100
0
VERTEX
5
615
100
AcDbEntity
8
1
100
AcDbVertex
100
AcDb2dVertex
62
1
10
-165.557017
20
897.491350
0
VERTEX
5
616
100
AcDbEntity
8
1
100
AcDbVertex
100
AcDb2dVertex
62
1
10
-165.463267
20
897.491350
0
VERTEX
5
617
100
AcDbEntity
8
1
100
AcDbVertex
100
AcDb2dVertex
62
1
10
-165.400767
20
897.553850
0
VERTEX
5
618
100
AcDbEntity
8
1
100
AcDbVertex
100
AcDb2dVertex
62
1
10
-165.338267
20
897.710100
0
SEQEND
5
619
100
AcDbEntity
8
1
0
POLYLINE
5
61a
100
AcDbEntity
8
1
6
CONTINUOUS
62
1
100
AcDb2dPolyline
66
1
10
0.0
20
0.0
30
0.0
70
1
0
VERTEX
5
61b
100
AcDbEntity
8
1
100
AcDbVertex
100
AcDb2dVertex
62
1
10
-165.057017
20
898.241350
0
VERTEX
5
61c
100
AcDbEntity
8
1
100
AcDbVertex
100
AcDb2dVertex
62
1
10
-164.994517
20
898.241350
0
VERTEX
5
61d
100
AcDbEntity
8
1
100
AcDbVertex
100
AcDb2dVertex
62
1
10
-164.932017
20
898.210100
0
VERTEX
5
61e
100
AcDbEntity
8
1
100
AcDbVertex
100
AcDb2dVertex
62
1
10
-164.900767
20
898.178850
0
VERTEX
5
61f
100
AcDbEntity
8
1
100
AcDbVertex
100
AcDb2dVertex
62
1
10
-164.869517
20
898.053850
0
VERTEX
5
620
100
AcDbEntity
8
1
100
AcDbVertex
100
AcDb2dVertex
62
1
10
-164.869517
20
897.678850
0
VERTEX
5
621
100
AcDbEntity
8
1
100
AcDbVertex
100
AcDb2dVertex
62
1
10
-164.900767
20
897.553850
0
VERTEX
5
622
100
AcDbEntity
8
1
100
AcDbVertex
100
AcDb2dVertex
62
1
10
-164.932017
20
897.522600
0
VERTEX
5
623
100
AcDbEntity
8
1
100
AcDbVertex
100
AcDb2dVertex
62
1
10
-164.994517
20
897.491350
0
VERTEX
5
624
100
AcDbEntity
8
1
100
AcDbVertex
100
AcDb2dVertex
62
1
10
-165.057017
20
897.491350
0
VERTEX
5
625
100
AcDbEntity
8
1
100
AcDbVertex
100
AcDb2dVertex
62
1
10
-165.119517
20
897.522600
0
VERTEX
5
626
100
AcDbEntity
8
1
100
AcDbVertex
100
AcDb2dVertex
62
1
10
-165.150767
20
897.553850
0
VERTEX
5
627
100
AcDbEntity
8
1
100
AcDbVertex
100
AcDb2dVertex
62
1
10
-165.182017
20
897.678850
0
VERTEX
5
628
100
AcDbEntity
8
1
100
AcDbVertex
100
AcDb2dVertex
62
1
10
-165.182017
20
898.053850
0
VERTEX
5
629
100
AcDbEntity
8
1
100
AcDbVertex
100
AcDb2dVertex
62
1
10
-165.150767
20
898.178850
0
VERTEX
5
62a
100
AcDbEntity
8
1
100
AcDbVertex
100
AcDb2dVertex
62
1
10
-165.119517
20
898.210100
0
VERTEX
5
62b
100
AcDbEntity
8
1
100
AcDbVertex
100
AcDb2dVertex
62
1
10
-165.057017
20
898.241350
0
SEQEND
5
62c
100
AcDbEntity
8
1
0
POLYLINE
5
62d
100
AcDbEntity
8
1
6
CONTINUOUS
62
1
100
AcDb2dPolyline
66
1
10
0.0
20
0.0
30
0.0
70
0
0
VERTEX
5
62e
100
AcDbEntity
8
1
100
AcDbVertex
100
AcDb2dVertex
62
1
10
-164.682017
20
897.491350
0
VERTEX
5
62f
100
AcDbEntity
8
1
100
AcDbVertex
100
AcDb2dVertex
62
1
10
-164.682017
20
898.241350
0
VERTEX
5
630
100
AcDbEntity
8
1
100
AcDbVertex
100
AcDb2dVertex
62
1
10
-164.525767
20
897.491350
0
VERTEX
5
631
100
AcDbEntity
8
1
100
AcDbVertex
100
AcDb2dVertex
62
1
10
-164.369517
20
898.241350
0
VERTEX
5
632
100
AcDbEntity
8
1
100
AcDbVertex
100
AcDb2dVertex
62
1
10
-164.369517
20
897.491350
0
SEQEND
5
633
100
AcDbEntity
8
1
0
POLYLINE
5
634
100
AcDbEntity
8
1
6
CONTINUOUS
62
1
100
AcDb2dPolyline
66
1
10
0.0
20
0.0
30
0.0
70
0
0
VERTEX
5
635
100
AcDbEntity
8
1
100
AcDbVertex
100
AcDb2dVertex
62
1
10
-164.119517
20
898.178850
0
VERTEX
5
636
100
AcDbEntity
8
1
100
AcDbVertex
100
AcDb2dVertex
62
1
10
-164.025767
20
898.241350
0
VERTEX
5
637
100
AcDbEntity
8
1
100
AcDbVertex
100
AcDb2dVertex
62
1
10
-164.025767
20
897.491350
0
SEQEND
5
638
100
AcDbEntity
8
1
0
LINE
5
639
100
AcDbEntity
8
1
100
AcDbLine
6
CONTINUOUS
62
1
10
-164.088267
20
897.491350
11
-163.963267
21
897.491350
0
POLYLINE
5
63a
100
AcDbEntity
8
1
6
CONTINUOUS
62
5
100
AcDb2dPolyline
66
1
10
0.0
20
0.0
30
0.0
70
1
0
VERTEX
5
63b
100
AcDbEntity
8
1
100
AcDbVertex
100
AcDb2dVertex
62
5
10
-162.596692
20
896.436350
0
VERTEX
5
63c
100
AcDbEntity
8
1
100
AcDbVertex
100
AcDb2dVertex
62
5
10
-162.885367
20
895.936350
0
VERTEX
5
63d
100
AcDbEntity
8
1
100
AcDbVertex
100
AcDb2dVertex
62
5
10
-162.596692
20
895.436350
0
VERTEX
5
63e
100
AcDbEntity
8
1
100
AcDbVertex
100
AcDb2dVertex
62
5
10
-162.019342
20
895.436350
0
VERTEX
5
63f
100
AcDbEntity
8
1
100
AcDbVertex
100
AcDb2dVertex
62
5
10
-161.730666
20
895.936350
0
VERTEX
5
640
100
AcDbEntity
8
1
100
AcDbVertex
100
AcDb2dVertex
62
5
10
-162.019342
20
896.436350
0
SEQEND
5
641
100
AcDbEntity
8
1
0
CIRCLE
5
642
100
AcDbEntity
8
1
100
AcDbCircle
6
DOT2
62
5
10
-162.308017
20
895.936350
40
0.250000
0
CIRCLE
5
643
100
AcDbEntity
8
1
100
AcDbCircle
6
CONTINUOUS
62
5
10
-162.308017
20
895.936350
40
0.150000
0
CIRCLE
5
644
100
AcDbEntity
8
1
100
AcDbCircle
6
DOT2
62
5
10
-167.071017
20
904.061350
40
0.250000
0
CIRCLE
5
645
100
AcDbEntity
8
1
100
AcDbCircle
6
CONTINUOUS
62
5
10
-167.071017
20
904.061350
40
0.150000
0
CIRCLE
5
646
100
AcDbEntity
8
1
100
AcDbCircle
6
DOT2
62
5
10
-167.306017
20
895.936350
40
0.250000
0
CIRCLE
5
647
100
AcDbEntity
8
1
100
AcDbCircle
6
CONTINUOUS
62
5
10
-167.306017
20
895.936350
40
0.150000
0
POLYLINE
5
648
100
AcDbEntity
8
1
6
CONTINUOUS
62
5
100
AcDb2dPolyline
66
1
10
0.0
20
0.0
30
0.0
70
1
0
VERTEX
5
649
100
AcDbEntity
8
1
100
AcDbVertex
100
AcDb2dVertex
62
5
10
-167.594692
20
896.436350
0
VERTEX
5
64a
100
AcDbEntity
8
1
100
AcDbVertex
100
AcDb2dVertex
62
5
10
-167.883367
20
895.936350
0
VERTEX
5
64b
100
AcDbEntity
8
1
100
AcDbVertex
100
AcDb2dVertex
62
5
10
-167.594692
20
895.436350
0
VERTEX
5
64c
100
AcDbEntity
8
1
100
AcDbVertex
100
AcDb2dVertex
62
5
10
-167.017342
20
895.436350
0
VERTEX
5
64d
100
AcDbEntity
8
1
100
AcDbVertex
100
AcDb2dVertex
62
5
10
-166.728666
20
895.936350
0
VERTEX
5
64e
100
AcDbEntity
8
1
100
AcDbVertex
100
AcDb2dVertex
62
5
10
-167.017342
20
896.436350
0
SEQEND
5
64f
100
AcDbEntity
8
1
0
CIRCLE
5
650
100
AcDbEntity
8
1
100
AcDbCircle
6
DOT2
62
5
10
-169.457017
20
895.936350
40
0.250000
0
CIRCLE
5
651
100
AcDbEntity
8
1
100
AcDbCircle
6
CONTINUOUS
62
5
10
-169.457017
20
895.936350
40
0.150000
0
POLYLINE
5
652
100
AcDbEntity
8
1
6
CONTINUOUS
62
5
100
AcDb2dPolyline
66
1
10
0.0
20
0.0
30
0.0
70
1
0
VERTEX
5
653
100
AcDbEntity
8
1
100
AcDbVertex
100
AcDb2dVertex
62
5
10
-169.745692
20
896.436350
0
VERTEX
5
654
100
AcDbEntity
8
1
100
AcDbVertex
100
AcDb2dVertex
62
5
10
-170.034367
20
895.936350
0
VERTEX
5
655
100
AcDbEntity
8
1
100
AcDbVertex
100
AcDb2dVertex
62
5
10
-169.745692
20
895.436350
0
VERTEX
5
656
100
AcDbEntity
8
1
100
AcDbVertex
100
AcDb2dVertex
62
5
10
-169.168342
20
895.436350
0
VERTEX
5
657
100
AcDbEntity
8
1
100
AcDbVertex
100
AcDb2dVertex
62
5
10
-168.879666
20
895.936350
0
VERTEX
5
658
100
AcDbEntity
8
1
100
AcDbVertex
100
AcDb2dVertex
62
5
10
-169.168342
20
896.436350
0
SEQEND
5
659
100
AcDbEntity
8
1
0
POLYLINE
5
65a
100
AcDbEntity
8
1
6
CONTINUOUS
62
1
100
AcDb2dPolyline
66
1
10
0.0
20
0.0
30
0.0
70
0
0
VERTEX
5
65b
100
AcDbEntity
8
1
100
AcDbVertex
100
AcDb2dVertex
62
1
10
-175.119517
20
898.085100
0
VERTEX
5
65c
100
AcDbEntity
8
1
100
AcDbVertex
100
AcDb2dVertex
62
1
10
-175.182017
20
898.210100
0
VERTEX
5
65d
100
AcDbEntity
8
1
100
AcDbVertex
100
AcDb2dVertex
62
1
10
-175.275767
20
898.241350
0
VERTEX
5
65e
100
AcDbEntity
8
1
100
AcDbVertex
100
AcDb2dVertex
62
1
10
-175.338267
20
898.241350
0
VERTEX
5
65f
100
AcDbEntity
8
1
100
AcDbVertex
100
AcDb2dVertex
62
1
10
-175.400767
20
898.210100
0
VERTEX
5
660
100
AcDbEntity
8
1
100
AcDbVertex
100
AcDb2dVertex
62
1
10
-175.463267
20
898.116350
0
VERTEX
5
661
100
AcDbEntity
8
1
100
AcDbVertex
100
AcDb2dVertex
62
1
10
-175.463267
20
898.022600
0
VERTEX
5
662
100
AcDbEntity
8
1
100
AcDbVertex
100
AcDb2dVertex
62
1
10
-175.400767
20
897.928850
0
VERTEX
5
663
100
AcDbEntity
8
1
100
AcDbVertex
100
AcDb2dVertex
62
1
10
-175.182017
20
897.803850
0
VERTEX
5
664
100
AcDbEntity
8
1
100
AcDbVertex
100
AcDb2dVertex
62
1
10
-175.119517
20
897.710100
0
VERTEX
5
665
100
AcDbEntity
8
1
100
AcDbVertex
100
AcDb2dVertex
62
1
10
-175.119517
20
897.616350
0
VERTEX
5
666
100
AcDbEntity
8
1
100
AcDbVertex
100
AcDb2dVertex
62
1
10
-175.182017
20
897.522600
0
VERTEX
5
667
100
AcDbEntity
8
1
100
AcDbVertex
100
AcDb2dVertex
62
1
10
-175.275767
20
897.491350
0
VERTEX
5
668
100
AcDbEntity
8
1
100
AcDbVertex
100
AcDb2dVertex
62
1
10
-175.338267
20
897.491350
0
VERTEX
5
669
100
AcDbEntity
8
1
100
AcDbVertex
100
AcDb2dVertex
62
1
10
-175.432017
20
897.553850
0
VERTEX
5
66a
100
AcDbEntity
8
1
100
AcDbVertex
100
AcDb2dVertex
62
1
10
-175.463267
20
897.678850
0
SEQEND
5
66b
100
AcDbEntity
8
1
0
LINE
5
66c
100
AcDbEntity
8
1
100
AcDbLine
6
CONTINUOUS
62
1
10
-174.932017
20
898.241350
11
-174.775767
21
897.835100
0
POLYLINE
5
66d
100
AcDbEntity
8
1
6
CONTINUOUS
62
1
100
AcDb2dPolyline
66
1
10
0.0
20
0.0
30
0.0
70
0
0
VERTEX
5
66e
100
AcDbEntity
8
1
100
AcDbVertex
100
AcDb2dVertex
62
1
10
-174.619517
20
898.241350
0
VERTEX
5
66f
100
AcDbEntity
8
1
100
AcDbVertex
100
AcDb2dVertex
62
1
10
-174.775767
20
897.835100
0
VERTEX
5
670
100
AcDbEntity
8
1
100
AcDbVertex
100
AcDb2dVertex
62
1
10
-174.775767
20
897.491350
0
SEQEND
5
671
100
AcDbEntity
8
1
0
POLYLINE
5
672
100
AcDbEntity
8
1
6
CONTINUOUS
62
1
100
AcDb2dPolyline
66
1
10
0.0
20
0.0
30
0.0
70
0
0
VERTEX
5
673
100
AcDbEntity
8
1
100
AcDbVertex
100
AcDb2dVertex
62
1
10
-174.119517
20
898.085100
0
VERTEX
5
674
100
AcDbEntity
8
1
100
AcDbVertex
100
AcDb2dVertex
62
1
10
-174.182017
20
898.210100
0
VERTEX
5
675
100
AcDbEntity
8
1
100
AcDbVertex
100
AcDb2dVertex
62
1
10
-174.275767
20
898.241350
0
VERTEX
5
676
100
AcDbEntity
8
1
100
AcDbVertex
100
AcDb2dVertex
62
1
10
-174.338267
20
898.241350
0
VERTEX
5
677
100
AcDbEntity
8
1
100
AcDbVertex
100
AcDb2dVertex
62
1
10
-174.400767
20
898.210100
0
VERTEX
5
678
100
AcDbEntity
8
1
100
AcDbVertex
100
AcDb2dVertex
62
1
10
-174.463267
20
898.116350
0
VERTEX
5
679
100
AcDbEntity
8
1
100
AcDbVertex
100
AcDb2dVertex
62
1
10
-174.463267
20
898.022600
0
VERTEX
5
67a
100
AcDbEntity
8
1
100
AcDbVertex
100
AcDb2dVertex
62
1
10
-174.400767
20
897.928850
0
VERTEX
5
67b
100
AcDbEntity
8
1
100
AcDbVertex
100
AcDb2dVertex
62
1
10
-174.182017
20
897.803850
0
VERTEX
5
67c
100
AcDbEntity
8
1
100
AcDbVertex
100
AcDb2dVertex
62
1
10
-174.119517
20
897.710100
0
VERTEX
5
67d
100
AcDbEntity
8
1
100
AcDbVertex
100
AcDb2dVertex
62
1
10
-174.119517
20
897.616350
0
VERTEX
5
67e
100
AcDbEntity
8
1
100
AcDbVertex
100
AcDb2dVertex
62
1
10
-174.182017
20
897.522600
0
VERTEX
5
67f
100
AcDbEntity
8
1
100
AcDbVertex
100
AcDb2dVertex
62
1
10
-174.275767
20
897.491350
0
VERTEX
5
680
100
AcDbEntity
8
1
100
AcDbVertex
100
AcDb2dVertex
62
1
10
-174.338267
20
897.491350
0
VERTEX
5
681
100
AcDbEntity
8
1
100
AcDbVertex
100
AcDb2dVertex
62
1
10
-174.432017
20
897.553850
0
VERTEX
5
682
100
AcDbEntity
8
1
100
AcDbVertex
100
AcDb2dVertex
62
1
10
-174.463267
20
897.678850
0
SEQEND
5
683
100
AcDbEntity
8
1
0
CIRCLE
5
684
100
AcDbEntity
8
1
100
AcDbCircle
6
CONTINUOUS
62
5
10
-172.707017
20
892.561350
40
0.940000
0
LINE
5
685
100
AcDbEntity
8
1
100
AcDbLine
6
CONTINUOUS
62
5
10
-173.004002
20
892.858335
11
-172.410032
21
892.264365
0
LINE
5
686
100
AcDbEntity
8
1
100
AcDbLine
6
CONTINUOUS
62
5
10
-172.410032
20
892.858335
11
-173.004002
21
892.264365
0
CIRCLE
5
687
100
AcDbEntity
8
1
100
AcDbCircle
6
DOT2
62
5
10
-172.603017
20
904.356350
40
0.250000
0
CIRCLE
5
688
100
AcDbEntity
8
1
100
AcDbCircle
6
CONTINUOUS
62
5
10
-172.603017
20
904.356350
40
0.150000
0
ARC
5
689
100
AcDbEntity
8
1
100
AcDbCircle
6
CONTINUOUS
62
5
10
-163.670421
20
895.501350
40
0.400000
100
AcDbArc
50
-89.999999
51
-10.000000
0
LINE
5
68a
100
AcDbEntity
8
1
100
AcDbLine
6
CONTINUOUS
62
5
10
-163.670421
20
895.101350
11
-165.943612
21
895.101350
0
ARC
5
68b
100
AcDbEntity
8
1
100
AcDbCircle
6
CONTINUOUS
62
5
10
-165.943612
20
895.501350
40
0.400000
100
AcDbArc
50
-169.999998
51
-89.999999
0
LINE
5
68c
100
AcDbEntity
8
1
100
AcDbLine
6
CONTINUOUS
62
5
10
-166.337535
20
895.431891
11
-166.490940
21
896.301891
0
ARC
5
68d
100
AcDbEntity
8
1
100
AcDbCircle
6
CONTINUOUS
62
5
10
-166.097017
20
896.371350
40
0.400000
100
AcDbArc
50
89.999999
51
-169.999998
0
LINE
5
68e
100
AcDbEntity
8
1
100
AcDbLine
6
CONTINUOUS
62
5
10
-166.097017
20
896.771350
11
-163.517017
21
896.771350
0
ARC
5
68f
100
AcDbEntity
8
1
100
AcDbCircle
6
CONTINUOUS
62
5
10
-163.517017
20
896.371350
40
0.400000
100
AcDbArc
50
-10.000000
51
89.999999
0
LINE
5
690
100
AcDbEntity
8
1
100
AcDbLine
6
CONTINUOUS
62
5
10
-163.123094
20
896.301891
11
-163.276498
21
895.431891
0
ARC
5
691
100
AcDbEntity
8
1
100
AcDbCircle
6
CONTINUOUS
62
5
10
-166.407017
20
895.136350
40
0.400000
100
AcDbArc
50
179.999998
51
-89.999999
0
LINE
5
692
100
AcDbEntity
8
1
100
AcDbLine
6
CONTINUOUS
62
5
10
-166.407017
20
894.736350
11
-163.207017
21
894.736350
0
ARC
5
693
100
AcDbEntity
8
1
100
AcDbCircle
6
CONTINUOUS
62
5
10
-163.207017
20
895.136350
40
0.400000
100
AcDbArc
50
-89.999999
51
0.000000
0
POLYLINE
5
694
100
AcDbEntity
8
1
6
CONTINUOUS
62
5
100
AcDb2dPolyline
66
1
10
0.0
20
0.0
30
0.0
70
0
0
VERTEX
5
695
100
AcDbEntity
8
1
100
AcDbVertex
100
AcDb2dVertex
62
5
10
-162.807017
20
895.136350
0
VERTEX
5
696
100
AcDbEntity
8
1
100
AcDbVertex
100
AcDb2dVertex
62
5
10
-162.807017
20
895.616350
0
VERTEX
5
697
100
AcDbEntity
8
1
100
AcDbVertex
100
AcDb2dVertex
62
5
10
-162.700615
20
895.616350
0
SEQEND
5
698
100
AcDbEntity
8
1
0
POLYLINE
5
699
100
AcDbEntity
8
1
6
CONTINUOUS
62
5
100
AcDb2dPolyline
66
1
10
0.0
20
0.0
30
0.0
70
0
0
VERTEX
5
69a
100
AcDbEntity
8
1
100
AcDbVertex
100
AcDb2dVertex
62
5
10
-166.913418
20
895.616350
0
VERTEX
5
69b
100
AcDbEntity
8
1
100
AcDbVertex
100
AcDb2dVertex
62
5
10
-166.807017
20
895.616350
0
VERTEX
5
69c
100
AcDbEntity
8
1
100
AcDbVertex
100
AcDb2dVertex
62
5
10
-166.807017
20
895.136350
0
SEQEND
5
69d
100
AcDbEntity
8
1
0
ARC
5
69e
100
AcDbEntity
8
1
100
AcDbCircle
6
CONTINUOUS
62
5
10
-163.207017
20
896.736350
40
0.400000
100
AcDbArc
50
0.000000
51
89.999999
0
LINE
5
69f
100
AcDbEntity
8
1
100
AcDbLine
6
CONTINUOUS
62
5
10
-163.207017
20
897.136350
11
-166.407017
21
897.136350
0
ARC
5
6a0
100
AcDbEntity
8
1
100
AcDbCircle
6
CONTINUOUS
62
5
10
-166.407017
20
896.736350
40
0.400000
100
AcDbArc
50
89.999999
51
179.999998
0
POLYLINE
5
6a1
100
AcDbEntity
8
1
6
CONTINUOUS
62
5
100
AcDb2dPolyline
66
1
10
0.0
20
0.0
30
0.0
70
0
0
VERTEX
5
6a2
100
AcDbEntity
8
1
100
AcDbVertex
100
AcDb2dVertex
62
5
10
-166.807017
20
896.736350
0
VERTEX
5
6a3
100
AcDbEntity
8
1
100
AcDbVertex
100
AcDb2dVertex
62
5
10
-166.807017
20
896.256350
0
VERTEX
5
6a4
100
AcDbEntity
8
1
100
AcDbVertex
100
AcDb2dVertex
62
5
10
-166.913418
20
896.256350
0
SEQEND
5
6a5
100
AcDbEntity
8
1
0
POLYLINE
5
6a6
100
AcDbEntity
8
1
6
CONTINUOUS
62
5
100
AcDb2dPolyline
66
1
10
0.0
20
0.0
30
0.0
70
0
0
VERTEX
5
6a7
100
AcDbEntity
8
1
100
AcDbVertex
100
AcDb2dVertex
62
5
10
-162.700615
20
896.256350
0
VERTEX
5
6a8
100
AcDbEntity
8
1
100
AcDbVertex
100
AcDb2dVertex
62
5
10
-162.807017
20
896.256350
0
VERTEX
5
6a9
100
AcDbEntity
8
1
100
AcDbVertex
100
AcDb2dVertex
62
5
10
-162.807017
20
896.736350
0
SEQEND
5
6aa
100
AcDbEntity
8
1
0
ARC
5
6ab
100
AcDbEntity
8
1
100
AcDbCircle
6
CONTINUOUS
62
5
10
-165.494001
20
903.631350
40
0.200000
100
AcDbArc
50
-162.387421
51
-89.999999
0
LINE
5
6ac
100
AcDbEntity
8
1
100
AcDbLine
6
CONTINUOUS
62
5
10
-165.684626
20
903.570834
11
-165.957642
21
904.430834
0
ARC
5
6ad
100
AcDbEntity
8
1
100
AcDbCircle
6
CONTINUOUS
62
5
10
-165.767017
20
904.491350
40
0.200000
100
AcDbArc
50
89.999999
51
-162.387421
0
LINE
5
6ae
100
AcDbEntity
8
1
100
AcDbLine
6
CONTINUOUS
62
5
10
-165.767017
20
904.691350
11
-163.647017
21
904.691350
0
ARC
5
6af
100
AcDbEntity
8
1
100
AcDbCircle
6
CONTINUOUS
62
5
10
-163.647017
20
904.491350
40
0.200000
100
AcDbArc
50
-17.612578
51
89.999999
0
LINE
5
6b0
100
AcDbEntity
8
1
100
AcDbLine
6
CONTINUOUS
62
5
10
-163.456392
20
904.430834
11
-163.729408
21
903.570834
0
ARC
5
6b1
100
AcDbEntity
8
1
100
AcDbCircle
6
CONTINUOUS
62
5
10
-163.920033
20
903.631350
40
0.200000
100
AcDbArc
50
-89.999999
51
-17.612578
0
LINE
5
6b2
100
AcDbEntity
8
1
100
AcDbLine
6
CONTINUOUS
62
5
10
-163.920033
20
903.431350
11
-165.494001
21
903.431350
0
LINE
5
6b3
100
AcDbEntity
8
1
100
AcDbLine
6
DOT2
62
5
10
-138.735501
20
852.460618
11
-138.735501
21
855.091332
0
CIRCLE
5
6b4
100
AcDbEntity
8
1
100
AcDbCircle
6
DOT2
62
5
10
-174.935501
20
850.344327
40
0.400000
0
CIRCLE
5
6b5
100
AcDbEntity
8
1
100
AcDbCircle
6
CONTINUOUS
62
5
10
-174.935501
20
850.344327
40
0.300000
0
CIRCLE
5
6b6
100
AcDbEntity
8
1
100
AcDbCircle
6
CONTINUOUS
62
5
10
-171.935501
20
852.344327
40
0.630000
0
LINE
5
6b7
100
AcDbEntity
8
1
100
AcDbLine
6
CONTINUOUS
62
5
10
-172.380979
20
852.789805
11
-171.490024
21
851.898850
0
LINE
5
6b8
100
AcDbEntity
8
1
100
AcDbLine
6
CONTINUOUS
62
5
10
-171.680943
20
852.598886
11
-172.190060
21
852.089769
0
CIRCLE
5
6b9
100
AcDbEntity
8
1
100
AcDbCircle
6
CONTINUOUS
62
5
10
-155.935501
20
852.344327
40
0.630000
0
LINE
5
6ba
100
AcDbEntity
8
1
100
AcDbLine
6
CONTINUOUS
62
5
10
-156.380979
20
852.789805
11
-155.490024
21
851.898850
0
LINE
5
6bb
100
AcDbEntity
8
1
100
AcDbLine
6
CONTINUOUS
62
5
10
-155.680943
20
852.598886
11
-156.190060
21
852.089769
0
LINE
5
6bc
100
AcDbEntity
8
1
100
AcDbLine
6
CONTINUOUS
62
1
10
-176.619517
20
898.272600
11
-176.932017
21
897.460100
0
LINE
5
6bd
100
AcDbEntity
8
1
100
AcDbLine
6
CONTINUOUS
62
1
10
-177.369517
20
898.241350
11
-177.182017
21
898.241350
0
LINE
5
6be
100
AcDbEntity
8
1
100
AcDbLine
6
CONTINUOUS
62
1
10
-177.275767
20
898.241350
11
-177.275767
21
897.491350
0
LINE
5
6bf
100
AcDbEntity
8
1
100
AcDbLine
6
CONTINUOUS
62
1
10
-177.369517
20
897.491350
11
-177.182017
21
897.491350
0
POLYLINE
5
6c0
100
AcDbEntity
8
1
6
CONTINUOUS
62
5
100
AcDb2dPolyline
66
1
10
0.0
20
0.0
30
0.0
70
1
0
VERTEX
5
6c1
100
AcDbEntity
8
1
100
AcDbVertex
100
AcDb2dVertex
62
5
10
-182.445692
20
896.436350
0
VERTEX
5
6c2
100
AcDbEntity
8
1
100
AcDbVertex
100
AcDb2dVertex
62
5
10
-182.734367
20
895.936350
0
VERTEX
5
6c3
100
AcDbEntity
8
1
100
AcDbVertex
100
AcDb2dVertex
62
5
10
-182.445692
20
895.436350
0
VERTEX
5
6c4
100
AcDbEntity
8
1
100
AcDbVertex
100
AcDb2dVertex
62
5
10
-181.868342
20
895.436350
0
VERTEX
5
6c5
100
AcDbEntity
8
1
100
AcDbVertex
100
AcDb2dVertex
62
5
10
-181.579666
20
895.936350
0
VERTEX
5
6c6
100
AcDbEntity
8
1
100
AcDbVertex
100
AcDb2dVertex
62
5
10
-181.868342
20
896.436350
0
SEQEND
5
6c7
100
AcDbEntity
8
1
0
CIRCLE
5
6c8
100
AcDbEntity
8
1
100
AcDbCircle
6
DOT2
62
5
10
-182.157017
20
895.936350
40
0.250000
0
CIRCLE
5
6c9
100
AcDbEntity
8
1
100
AcDbCircle
6
CONTINUOUS
62
5
10
-182.157017
20
895.936350
40
0.150000
0
CIRCLE
5
6ca
100
AcDbEntity
8
1
100
AcDbCircle
6
DOT2
62
5
10
-182.011017
20
904.356350
40
0.250000
0
CIRCLE
5
6cb
100
AcDbEntity
8
1
100
AcDbCircle
6
CONTINUOUS
62
5
10
-182.011017
20
904.356350
40
0.150000
0
CIRCLE
5
6cc
100
AcDbEntity
8
1
100
AcDbCircle
6
CONTINUOUS
62
5
10
-192.307017
20
898.761350
40
0.630000
0
LINE
5
6cd
100
AcDbEntity
8
1
100
AcDbLine
6
CONTINUOUS
62
5
10
-191.861539
20
899.206827
11
-192.752494
21
898.315873
0
LINE
5
6ce
100
AcDbEntity
8
1
100
AcDbLine
6
CONTINUOUS
62
5
10
-192.052458
20
898.506792
11
-192.561575
21
899.015908
0
CIRCLE
5
6cf
100
AcDbEntity
8
1
100
AcDbCircle
6
CONTINUOUS
62
5
10
-192.307017
20
903.961350
40
0.630000
0
LINE
5
6d0
100
AcDbEntity
8
1
100
AcDbLine
6
CONTINUOUS
62
5
10
-191.861539
20
904.406827
11
-192.752494
21
903.515873
0
LINE
5
6d1
100
AcDbEntity
8
1
100
AcDbLine
6
CONTINUOUS
62
5
10
-192.052458
20
903.706792
11
-192.561575
21
904.215908
0
CIRCLE
5
6d2
100
AcDbEntity
8
1
100
AcDbCircle
6
CONTINUOUS
62
5
10
-187.107017
20
898.761350
40
0.630000
0
LINE
5
6d3
100
AcDbEntity
8
1
100
AcDbLine
6
CONTINUOUS
62
5
10
-186.661539
20
899.206827
11
-187.552494
21
898.315873
0
LINE
5
6d4
100
AcDbEntity
8
1
100
AcDbLine
6
CONTINUOUS
62
5
10
-186.852458
20
898.506792
11
-187.361575
21
899.015908
0
ARC
5
6d5
100
AcDbEntity
8
1
100
AcDbCircle
6
CONTINUOUS
62
5
10
-189.707017
20
901.361350
40
2.200000
100
AcDbArc
50
0.000000
51
179.999998
0
LINE
5
6d6
100
AcDbEntity
8
1
100
AcDbLine
6
CONTINUOUS
62
5
10
-191.907017
20
901.361350
11
-191.907017
21
901.361350
0
ARC
5
6d7
100
AcDbEntity
8
1
100
AcDbCircle
6
CONTINUOUS
62
5
10
-189.707017
20
901.361350
40
2.200000
100
AcDbArc
50
179.999998
51
0.000000
0
LINE
5
6d8
100
AcDbEntity
8
1
100
AcDbLine
6
CONTINUOUS
62
5
10
-187.507017
20
901.361350
11
-187.507017
21
901.361350
0
CIRCLE
5
6d9
100
AcDbEntity
8
1
100
AcDbCircle
6
CONTINUOUS
62
5
10
-189.707017
20
901.361350
40
2.600000
0
CIRCLE
5
6da
100
AcDbEntity
8
1
100
AcDbCircle
6
CONTINUOUS
62
5
10
-187.107017
20
903.961350
40
0.630000
0
LINE
5
6db
100
AcDbEntity
8
1
100
AcDbLine
6
CONTINUOUS
62
5
10
-186.661539
20
904.406827
11
-187.552494
21
903.515873
0
LINE
5
6dc
100
AcDbEntity
8
1
100
AcDbLine
6
CONTINUOUS
62
5
10
-186.852458
20
903.706792
11
-187.361575
21
904.215908
0
LINE
5
6dd
100
AcDbEntity
8
1
100
AcDbLine
6
DOT2
62
5
10
-187.707017
20
891.361350
11
-187.707017
21
889.761350
0
ARC
5
6de
100
AcDbEntity
8
0
100
AcDbCircle
6
CONTINUOUS
62
5
10
-185.963172
20
888.561350
40
0.200000
100
AcDbArc
50
-89.999999
51
-14.036243
0
LINE
5
6df
100
AcDbEntity
8
0
100
AcDbLine
6
CONTINUOUS
62
5
10
-185.963172
20
888.361350
11
-189.450861
21
888.361350
0
ARC
5
6e0
100
AcDbEntity
8
0
100
AcDbCircle
6
CONTINUOUS
62
5
10
-189.450861
20
888.561350
40
0.200000
100
AcDbArc
50
-165.963755
51
-89.999999
0
POLYLINE
5
6e1
100
AcDbEntity
8
0
6
CONTINUOUS
62
5
100
AcDb2dPolyline
66
1
10
0.0
20
0.0
30
0.0
70
0
0
VERTEX
5
6e2
100
AcDbEntity
8
0
100
AcDbVertex
100
AcDb2dVertex
62
5
10
-189.644890
20
888.512843
0
VERTEX
5
6e3
100
AcDbEntity
8
0
100
AcDbVertex
100
AcDb2dVertex
62
5
10
-190.107017
20
890.361350
0
VERTEX
5
6e4
100
AcDbEntity
8
0
100
AcDbVertex
100
AcDb2dVertex
62
5
10
-185.307017
20
890.361350
0
VERTEX
5
6e5
100
AcDbEntity
8
0
100
AcDbVertex
100
AcDb2dVertex
62
5
10
-185.769143
20
888.512843
0
SEQEND
5
6e6
100
AcDbEntity
8
0
0
LINE
5
6e7
100
AcDbEntity
8
0
100
AcDbLine
6
DOT2
62
5
10
-187.707017
20
890.761350
11
-187.707017
21
887.961350
0
LINE
5
6e8
100
AcDbEntity
8
1
100
AcDbLine
6
CONTINUOUS
62
5
10
-197.707017
20
890.961350
11
-197.307017
21
890.961350
0
LINE
5
6e9
100
AcDbEntity
8
1
100
AcDbLine
6
CONTINUOUS
62
5
10
-196.867017
20
890.361350
11
-196.867017
21
890.961350
0
ARC
5
6ea
100
AcDbEntity
8
1
100
AcDbCircle
6
CONTINUOUS
62
5
10
-177.775501
20
853.584327
40
0.440000
100
AcDbArc
50
89.999999
51
179.999998
0
LINE
5
6eb
100
AcDbEntity
8
1
100
AcDbLine
6
CONTINUOUS
62
5
10
-177.775501
20
854.024327
11
-177.615501
21
854.024327
0
LINE
5
6ec
100
AcDbEntity
8
1
100
AcDbLine
6
CONTINUOUS
62
5
10
-178.215501
20
853.424327
11
-178.215501
21
853.584327
0
LINE
5
6ed
100
AcDbEntity
8
1
100
AcDbLine
6
CONTINUOUS
62
1
10
-175.932017
20
897.866350
11
-175.619517
21
897.866350
0
POLYLINE
5
6ee
100
AcDbEntity
8
1
6
CONTINUOUS
62
1
100
AcDb2dPolyline
66
1
10
0.0
20
0.0
30
0.0
70
1
0
VERTEX
5
6ef
100
AcDbEntity
8
1
100
AcDbVertex
100
AcDb2dVertex
62
1
10
-176.307017
20
898.241350
0
VERTEX
5
6f0
100
AcDbEntity
8
1
100
AcDbVertex
100
AcDb2dVertex
62
1
10
-176.244517
20
898.241350
0
VERTEX
5
6f1
100
AcDbEntity
8
1
100
AcDbVertex
100
AcDb2dVertex
62
1
10
-176.182017
20
898.210100
0
VERTEX
5
6f2
100
AcDbEntity
8
1
100
AcDbVertex
100
AcDb2dVertex
62
1
10
-176.150767
20
898.178850
0
VERTEX
5
6f3
100
AcDbEntity
8
1
100
AcDbVertex
100
AcDb2dVertex
62
1
10
-176.119517
20
898.053850
0
VERTEX
5
6f4
100
AcDbEntity
8
1
100
AcDbVertex
100
AcDb2dVertex
62
1
10
-176.119517
20
897.678850
0
VERTEX
5
6f5
100
AcDbEntity
8
1
100
AcDbVertex
100
AcDb2dVertex
62
1
10
-176.150767
20
897.553850
0
VERTEX
5
6f6
100
AcDbEntity
8
1
100
AcDbVertex
100
AcDb2dVertex
62
1
10
-176.182017
20
897.522600
0
VERTEX
5
6f7
100
AcDbEntity
8
1
100
AcDbVertex
100
AcDb2dVertex
62
1
10
-176.244517
20
897.491350
0
VERTEX
5
6f8
100
AcDbEntity
8
1
100
AcDbVertex
100
AcDb2dVertex
62
1
10
-176.307017
20
897.491350
0
VERTEX
5
6f9
100
AcDbEntity
8
1
100
AcDbVertex
100
AcDb2dVertex
62
1
10
-176.369517
20
897.522600
0
VERTEX
5
6fa
100
AcDbEntity
8
1
100
AcDbVertex
100
AcDb2dVertex
62
1
10
-176.400767
20
897.553850
0
VERTEX
5
6fb
100
AcDbEntity
8
1
100
AcDbVertex
100
AcDb2dVertex
62
1
10
-176.432017
20
897.678850
0
VERTEX
5
6fc
100
AcDbEntity
8
1
100
AcDbVertex
100
AcDb2dVertex
62
1
10
-176.432017
20
898.053850
0
VERTEX
5
6fd
100
AcDbEntity
8
1
100
AcDbVertex
100
AcDb2dVertex
62
1
10
-176.400767
20
898.178850
0
VERTEX
5
6fe
100
AcDbEntity
8
1
100
AcDbVertex
100
AcDb2dVertex
62
1
10
-176.369517
20
898.210100
0
VERTEX
5
6ff
100
AcDbEntity
8
1
100
AcDbVertex
100
AcDb2dVertex
62
1
10
-176.307017
20
898.241350
0
SEQEND
5
700
100
AcDbEntity
8
1
0
ARC
5
701
100
AcDbEntity
8
1
100
AcDbCircle
6
CONTINUOUS
62
5
10
-170.817421
20
895.501350
40
0.400000
100
AcDbArc
50
-89.999999
51
-10.000000
0
LINE
5
702
100
AcDbEntity
8
1
100
AcDbLine
6
CONTINUOUS
62
5
10
-170.817421
20
895.101350
11
-180.796612
21
895.101350
0
ARC
5
703
100
AcDbEntity
8
1
100
AcDbCircle
6
CONTINUOUS
62
5
10
-180.796612
20
895.501350
40
0.400000
100
AcDbArc
50
-169.999998
51
-89.999999
0
LINE
5
704
100
AcDbEntity
8
1
100
AcDbLine
6
CONTINUOUS
62
5
10
-181.190535
20
895.431891
11
-181.343940
21
896.301891
0
ARC
5
705
100
AcDbEntity
8
1
100
AcDbCircle
6
CONTINUOUS
62
5
10
-180.950017
20
896.371350
40
0.400000
100
AcDbArc
50
89.999999
51
-169.999998
0
LINE
5
706
100
AcDbEntity
8
1
100
AcDbLine
6
CONTINUOUS
62
5
10
-180.950017
20
896.771350
11
-170.664017
21
896.771350
0
ARC
5
707
100
AcDbEntity
8
1
100
AcDbCircle
6
CONTINUOUS
62
5
10
-170.664017
20
896.371350
40
0.400000
100
AcDbArc
50
-10.000000
51
89.999999
0
LINE
5
708
100
AcDbEntity
8
1
100
AcDbLine
6
CONTINUOUS
62
5
10
-170.270094
20
896.301891
11
-170.423498
21
895.431891
0
ARC
5
709
100
AcDbEntity
8
1
100
AcDbCircle
6
CONTINUOUS
62
5
10
-181.307017
20
895.136350
40
0.400000
100
AcDbArc
50
179.999998
51
-89.999999
0
LINE
5
70a
100
AcDbEntity
8
1
100
AcDbLine
6
CONTINUOUS
62
5
10
-181.307017
20
894.736350
11
-170.307017
21
894.736350
0
ARC
5
70b
100
AcDbEntity
8
1
100
AcDbCircle
6
CONTINUOUS
62
5
10
-170.307017
20
895.136350
40
0.400000
100
AcDbArc
50
-89.999999
51
0.000000
0
POLYLINE
5
70c
100
AcDbEntity
8
1
6
CONTINUOUS
62
5
100
AcDb2dPolyline
66
1
10
0.0
20
0.0
30
0.0
70
0
0
VERTEX
5
70d
100
AcDbEntity
8
1
100
AcDbVertex
100
AcDb2dVertex
62
5
10
-169.907017
20
895.136350
0
VERTEX
5
70e
100
AcDbEntity
8
1
100
AcDbVertex
100
AcDb2dVertex
62
5
10
-169.907017
20
895.616350
0
VERTEX
5
70f
100
AcDbEntity
8
1
100
AcDbVertex
100
AcDb2dVertex
62
5
10
-169.849615
20
895.616350
0
SEQEND
5
710
100
AcDbEntity
8
1
0
POLYLINE
5
711
100
AcDbEntity
8
1
6
CONTINUOUS
62
5
100
AcDb2dPolyline
66
1
10
0.0
20
0.0
30
0.0
70
0
0
VERTEX
5
712
100
AcDbEntity
8
1
100
AcDbVertex
100
AcDb2dVertex
62
5
10
-181.764418
20
895.616350
0
VERTEX
5
713
100
AcDbEntity
8
1
100
AcDbVertex
100
AcDb2dVertex
62
5
10
-181.707017
20
895.616350
0
VERTEX
5
714
100
AcDbEntity
8
1
100
AcDbVertex
100
AcDb2dVertex
62
5
10
-181.707017
20
895.136350
0
SEQEND
5
715
100
AcDbEntity
8
1
0
ARC
5
716
100
AcDbEntity
8
1
100
AcDbCircle
6
CONTINUOUS
62
5
10
-170.307017
20
896.736350
40
0.400000
100
AcDbArc
50
0.000000
51
89.999999
0
LINE
5
717
100
AcDbEntity
8
1
100
AcDbLine
6
CONTINUOUS
62
5
10
-170.307017
20
897.136350
11
-181.307017
21
897.136350
0
ARC
5
718
100
AcDbEntity
8
1
100
AcDbCircle
6
CONTINUOUS
62
5
10
-181.307017
20
896.736350
40
0.400000
100
AcDbArc
50
89.999999
51
179.999998
0
POLYLINE
5
719
100
AcDbEntity
8
1
6
CONTINUOUS
62
5
100
AcDb2dPolyline
66
1
10
0.0
20
0.0
30
0.0
70
0
0
VERTEX
5
71a
100
AcDbEntity
8
1
100
AcDbVertex
100
AcDb2dVertex
62
5
10
-181.707017
20
896.736350
0
VERTEX
5
71b
100
AcDbEntity
8
1
100
AcDbVertex
100
AcDb2dVertex
62
5
10
-181.707017
20
896.256350
0
VERTEX
5
71c
100
AcDbEntity
8
1
100
AcDbVertex
100
AcDb2dVertex
62
5
10
-181.764418
20
896.256350
0
SEQEND
5
71d
100
AcDbEntity
8
1
0
POLYLINE
5
71e
100
AcDbEntity
8
1
6
CONTINUOUS
62
5
100
AcDb2dPolyline
66
1
10
0.0
20
0.0
30
0.0
70
0
0
VERTEX
5
71f
100
AcDbEntity
8
1
100
AcDbVertex
100
AcDb2dVertex
62
5
10
-169.849615
20
896.256350
0
VERTEX
5
720
100
AcDbEntity
8
1
100
AcDbVertex
100
AcDb2dVertex
62
5
10
-169.907017
20
896.256350
0
VERTEX
5
721
100
AcDbEntity
8
1
100
AcDbVertex
100
AcDb2dVertex
62
5
10
-169.907017
20
896.736350
0
SEQEND
5
722
100
AcDbEntity
8
1
0
POLYLINE
5
723
100
AcDbEntity
8
1
6
CONTINUOUS
62
5
100
AcDb2dPolyline
66
1
10
0.0
20
0.0
30
0.0
70
1
0
VERTEX
5
724
100
AcDbEntity
8
1
100
AcDbVertex
100
AcDb2dVertex
62
5
10
-162.757017
20
904.381350
0
VERTEX
5
725
100
AcDbEntity
8
1
100
AcDbVertex
100
AcDb2dVertex
62
5
10
-162.757017
20
904.761350
0
VERTEX
5
726
100
AcDbEntity
8
1
100
AcDbVertex
100
AcDb2dVertex
62
5
10
-163.257017
20
904.761350
0
VERTEX
5
727
100
AcDbEntity
8
1
100
AcDbVertex
100
AcDb2dVertex
62
5
10
-163.257017
20
903.361350
0
VERTEX
5
728
100
AcDbEntity
8
1
100
AcDbVertex
100
AcDb2dVertex
62
5
10
-162.757017
20
903.361350
0
VERTEX
5
729
100
AcDbEntity
8
1
100
AcDbVertex
100
AcDb2dVertex
62
5
10
-162.757017
20
903.741350
0
VERTEX
5
72a
100
AcDbEntity
8
1
100
AcDbVertex
100
AcDb2dVertex
62
5
10
-163.007017
20
903.741350
0
VERTEX
5
72b
100
AcDbEntity
8
1
100
AcDbVertex
100
AcDb2dVertex
62
5
10
-163.007017
20
904.381350
0
SEQEND
5
72c
100
AcDbEntity
8
1
0
POLYLINE
5
72d
100
AcDbEntity
8
1
6
CONTINUOUS
62
5
100
AcDb2dPolyline
66
1
10
0.0
20
0.0
30
0.0
70
1
0
VERTEX
5
72e
100
AcDbEntity
8
1
100
AcDbVertex
100
AcDb2dVertex
62
5
10
-166.657017
20
904.381350
0
VERTEX
5
72f
100
AcDbEntity
8
1
100
AcDbVertex
100
AcDb2dVertex
62
5
10
-166.657017
20
904.761350
0
VERTEX
5
730
100
AcDbEntity
8
1
100
AcDbVertex
100
AcDb2dVertex
62
5
10
-166.157017
20
904.761350
0
VERTEX
5
731
100
AcDbEntity
8
1
100
AcDbVertex
100
AcDb2dVertex
62
5
10
-166.157017
20
903.361350
0
VERTEX
5
732
100
AcDbEntity
8
1
100
AcDbVertex
100
AcDb2dVertex
62
5
10
-166.657017
20
903.361350
0
VERTEX
5
733
100
AcDbEntity
8
1
100
AcDbVertex
100
AcDb2dVertex
62
5
10
-166.657017
20
903.741350
0
VERTEX
5
734
100
AcDbEntity
8
1
100
AcDbVertex
100
AcDb2dVertex
62
5
10
-166.407017
20
903.741350
0
VERTEX
5
735
100
AcDbEntity
8
1
100
AcDbVertex
100
AcDb2dVertex
62
5
10
-166.407017
20
904.381350
0
SEQEND
5
736
100
AcDbEntity
8
1
0
ARC
5
737
100
AcDbEntity
8
1
100
AcDbCircle
6
CONTINUOUS
62
5
10
-167.105517
20
904.061350
40
0.280000
100
AcDbArc
50
89.999999
51
-89.999999
0
POLYLINE
5
738
100
AcDbEntity
8
1
6
CONTINUOUS
62
5
100
AcDb2dPolyline
66
1
10
0.0
20
0.0
30
0.0
70
0
0
VERTEX
5
739
100
AcDbEntity
8
1
100
AcDbVertex
100
AcDb2dVertex
62
5
10
-167.105517
20
904.341350
0
VERTEX
5
73a
100
AcDbEntity
8
1
100
AcDbVertex
100
AcDb2dVertex
62
5
10
-166.807017
20
904.341350
0
VERTEX
5
73b
100
AcDbEntity
8
1
100
AcDbVertex
100
AcDb2dVertex
62
5
10
-166.807017
20
904.921350
0
VERTEX
5
73c
100
AcDbEntity
8
1
100
AcDbVertex
100
AcDb2dVertex
62
5
10
-162.607017
20
904.921350
0
VERTEX
5
73d
100
AcDbEntity
8
1
100
AcDbVertex
100
AcDb2dVertex
62
5
10
-162.607017
20
904.341350
0
VERTEX
5
73e
100
AcDbEntity
8
1
100
AcDbVertex
100
AcDb2dVertex
62
5
10
-162.305517
20
904.341350
0
SEQEND
5
73f
100
AcDbEntity
8
1
0
ARC
5
740
100
AcDbEntity
8
1
100
AcDbCircle
6
CONTINUOUS
62
5
10
-162.305517
20
904.061350
40
0.280000
100
AcDbArc
50
-89.999999
51
89.999999
0
POLYLINE
5
741
100
AcDbEntity
8
1
6
CONTINUOUS
62
5
100
AcDb2dPolyline
66
1
10
0.0
20
0.0
30
0.0
70
0
0
VERTEX
5
742
100
AcDbEntity
8
1
100
AcDbVertex
100
AcDb2dVertex
62
5
10
-162.305517
20
903.781350
0
VERTEX
5
743
100
AcDbEntity
8
1
100
AcDbVertex
100
AcDb2dVertex
62
5
10
-162.607017
20
903.781350
0
VERTEX
5
744
100
AcDbEntity
8
1
100
AcDbVertex
100
AcDb2dVertex
62
5
10
-162.607017
20
903.101350
0
VERTEX
5
745
100
AcDbEntity
8
1
100
AcDbVertex
100
AcDb2dVertex
62
5
10
-166.807017
20
903.101350
0
VERTEX
5
746
100
AcDbEntity
8
1
100
AcDbVertex
100
AcDb2dVertex
62
5
10
-166.807017
20
903.781350
0
VERTEX
5
747
100
AcDbEntity
8
1
100
AcDbVertex
100
AcDb2dVertex
62
5
10
-167.105517
20
903.781350
0
SEQEND
5
748
100
AcDbEntity
8
1
0
CIRCLE
5
749
100
AcDbEntity
8
1
100
AcDbCircle
6
CONTINUOUS
62
5
10
-160.707017
20
904.361350
40
0.630000
0
LINE
5
74a
100
AcDbEntity
8
1
100
AcDbLine
6
CONTINUOUS
62
5
10
-160.261539
20
904.806827
11
-161.152494
21
903.915873
0
LINE
5
74b
100
AcDbEntity
8
1
100
AcDbLine
6
CONTINUOUS
62
5
10
-160.452458
20
904.106792
11
-160.961575
21
904.615908
0
ARC
5
74c
100
AcDbEntity
8
1
100
AcDbCircle
6
CONTINUOUS
62
5
10
-141.007017
20
908.961350
40
0.400000
100
AcDbArc
50
-0.000000
51
89.999999
0
LINE
5
74d
100
AcDbEntity
8
1
100
AcDbLine
6
CONTINUOUS
62
5
10
-141.007017
20
909.361350
11
-154.207017
21
909.361350
0
ARC
5
74e
100
AcDbEntity
8
1
100
AcDbCircle
6
CONTINUOUS
62
5
10
-154.207017
20
908.961350
40
0.400000
100
AcDbArc
50
89.999999
51
179.999998
0
LINE
5
74f
100
AcDbEntity
8
1
100
AcDbLine
6
CONTINUOUS
62
5
10
-154.607017
20
908.961350
11
-154.607017
21
894.361350
0
ARC
5
750
100
AcDbEntity
8
1
100
AcDbCircle
6
CONTINUOUS
62
5
10
-154.207017
20
894.361350
40
0.400000
100
AcDbArc
50
179.999998
51
-89.999999
0
LINE
5
751
100
AcDbEntity
8
1
100
AcDbLine
6
CONTINUOUS
62
5
10
-154.207017
20
893.961350
11
-141.007017
21
893.961350
0
ARC
5
752
100
AcDbEntity
8
1
100
AcDbCircle
6
CONTINUOUS
62
5
10
-141.007017
20
894.361350
40
0.400000
100
AcDbArc
50
-89.999999
51
-0.000000
0
LINE
5
753
100
AcDbEntity
8
1
100
AcDbLine
6
CONTINUOUS
62
5
10
-140.607017
20
894.361350
11
-140.607017
21
908.961350
0
ARC
5
754
100
AcDbEntity
8
1
100
AcDbCircle
6
CONTINUOUS
62
5
10
-162.157017
20
903.261350
40
0.400000
100
AcDbArc
50
-89.999999
51
0.000000
0
LINE
5
755
100
AcDbEntity
8
1
100
AcDbLine
6
CONTINUOUS
62
5
10
-161.757017
20
903.261350
11
-161.757017
21
904.881350
0
ARC
5
756
100
AcDbEntity
8
1
100
AcDbCircle
6
CONTINUOUS
62
5
10
-162.157017
20
904.881350
40
0.400000
100
AcDbArc
50
0.000000
51
89.999999
0
LINE
5
757
100
AcDbEntity
8
1
100
AcDbLine
6
CONTINUOUS
62
5
10
-162.157017
20
905.281350
11
-167.257017
21
905.281350
0
ARC
5
758
100
AcDbEntity
8
1
100
AcDbCircle
6
CONTINUOUS
62
5
10
-167.257017
20
904.881350
40
0.400000
100
AcDbArc
50
89.999999
51
179.999998
0
LINE
5
759
100
AcDbEntity
8
1
100
AcDbLine
6
CONTINUOUS
62
5
10
-167.657017
20
904.881350
11
-167.657017
21
903.261350
0
ARC
5
75a
100
AcDbEntity
8
1
100
AcDbCircle
6
CONTINUOUS
62
5
10
-167.257017
20
903.261350
40
0.400000
100
AcDbArc
50
179.999998
51
-89.999999
0
LINE
5
75b
100
AcDbEntity
8
1
100
AcDbLine
6
CONTINUOUS
62
5
10
-167.257017
20
902.861350
11
-162.157017
21
902.861350
0
POLYLINE
5
75c
100
AcDbEntity
8
1
6
CONTINUOUS
62
5
100
AcDb2dPolyline
66
1
10
0.0
20
0.0
30
0.0
70
1
0
VERTEX
5
75d
100
AcDbEntity
8
1
100
AcDbVertex
100
AcDb2dVertex
62
5
10
-161.757017
20
903.101350
0
VERTEX
5
75e
100
AcDbEntity
8
1
100
AcDbVertex
100
AcDb2dVertex
62
5
10
-161.757017
20
904.921350
0
VERTEX
5
75f
100
AcDbEntity
8
1
100
AcDbVertex
100
AcDb2dVertex
62
5
10
-167.657017
20
904.921350
0
VERTEX
5
760
100
AcDbEntity
8
1
100
AcDbVertex
100
AcDb2dVertex
62
5
10
-167.657017
20
903.101350
0
SEQEND
5
761
100
AcDbEntity
8
1
0
CIRCLE
5
762
100
AcDbEntity
8
1
100
AcDbCircle
6
CONTINUOUS
62
5
10
-170.907017
20
904.361350
40
0.630000
0
LINE
5
763
100
AcDbEntity
8
1
100
AcDbLine
6
CONTINUOUS
62
5
10
-170.461539
20
904.806827
11
-171.352494
21
903.915873
0
LINE
5
764
100
AcDbEntity
8
1
100
AcDbLine
6
CONTINUOUS
62
5
10
-170.652458
20
904.106792
11
-171.161575
21
904.615908
0
CIRCLE
5
765
100
AcDbEntity
8
1
100
AcDbCircle
6
CONTINUOUS
62
5
10
-168.707017
20
904.361350
40
0.630000
0
LINE
5
766
100
AcDbEntity
8
1
100
AcDbLine
6
CONTINUOUS
62
5
10
-168.261539
20
904.806827
11
-169.152494
21
903.915873
0
LINE
5
767
100
AcDbEntity
8
1
100
AcDbLine
6
CONTINUOUS
62
5
10
-168.452458
20
904.106792
11
-168.961575
21
904.615908
0
POLYLINE
5
768
100
AcDbEntity
8
1
6
CONTINUOUS
62
5
100
AcDb2dPolyline
66
1
10
0.0
20
0.0
30
0.0
70
1
0
VERTEX
5
769
100
AcDbEntity
8
1
100
AcDbVertex
100
AcDb2dVertex
62
5
10
-172.891692
20
904.856350
0
VERTEX
5
76a
100
AcDbEntity
8
1
100
AcDbVertex
100
AcDb2dVertex
62
5
10
-173.180367
20
904.356350
0
VERTEX
5
76b
100
AcDbEntity
8
1
100
AcDbVertex
100
AcDb2dVertex
62
5
10
-172.891692
20
903.856350
0
VERTEX
5
76c
100
AcDbEntity
8
1
100
AcDbVertex
100
AcDb2dVertex
62
5
10
-172.314342
20
903.856350
0
VERTEX
5
76d
100
AcDbEntity
8
1
100
AcDbVertex
100
AcDb2dVertex
62
5
10
-172.025666
20
904.356350
0
VERTEX
5
76e
100
AcDbEntity
8
1
100
AcDbVertex
100
AcDb2dVertex
62
5
10
-172.314342
20
904.856350
0
SEQEND
5
76f
100
AcDbEntity
8
1
0
CIRCLE
5
770
100
AcDbEntity
8
1
100
AcDbCircle
6
CONTINUOUS
62
5
10
-183.707017
20
904.361350
40
0.630000
0
LINE
5
771
100
AcDbEntity
8
1
100
AcDbLine
6
CONTINUOUS
62
5
10
-183.261539
20
904.806827
11
-184.152494
21
903.915873
0
LINE
5
772
100
AcDbEntity
8
1
100
AcDbLine
6
CONTINUOUS
62
5
10
-183.452458
20
904.106792
11
-183.961575
21
904.615908
0
POLYLINE
5
773
100
AcDbEntity
8
1
6
CONTINUOUS
62
5
100
AcDb2dPolyline
66
1
10
0.0
20
0.0
30
0.0
70
1
0
VERTEX
5
774
100
AcDbEntity
8
1
100
AcDbVertex
100
AcDb2dVertex
62
5
10
-182.299692
20
904.856350
0
VERTEX
5
775
100
AcDbEntity
8
1
100
AcDbVertex
100
AcDb2dVertex
62
5
10
-182.588367
20
904.356350
0
VERTEX
5
776
100
AcDbEntity
8
1
100
AcDbVertex
100
AcDb2dVertex
62
5
10
-182.299692
20
903.856350
0
VERTEX
5
777
100
AcDbEntity
8
1
100
AcDbVertex
100
AcDb2dVertex
62
5
10
-181.722342
20
903.856350
0
VERTEX
5
778
100
AcDbEntity
8
1
100
AcDbVertex
100
AcDb2dVertex
62
5
10
-181.433666
20
904.356350
0
VERTEX
5
779
100
AcDbEntity
8
1
100
AcDbVertex
100
AcDb2dVertex
62
5
10
-181.722342
20
904.856350
0
SEQEND
5
77a
100
AcDbEntity
8
1
0
LINE
5
77b
100
AcDbEntity
8
1
100
AcDbLine
6
CONTINUOUS
62
1
10
-189.582017
20
905.661350
11
-189.582017
21
904.911350
0
POLYLINE
5
77c
100
AcDbEntity
8
1
6
CONTINUOUS
62
1
100
AcDb2dPolyline
66
1
10
0.0
20
0.0
30
0.0
70
0
0
VERTEX
5
77d
100
AcDbEntity
8
1
100
AcDbVertex
100
AcDb2dVertex
62
1
10
-189.582017
20
905.661350
0
VERTEX
5
77e
100
AcDbEntity
8
1
100
AcDbVertex
100
AcDb2dVertex
62
1
10
-189.425767
20
905.661350
0
VERTEX
5
77f
100
AcDbEntity
8
1
100
AcDbVertex
100
AcDb2dVertex
62
1
10
-189.363267
20
905.630100
0
VERTEX
5
780
100
AcDbEntity
8
1
100
AcDbVertex
100
AcDb2dVertex
62
1
10
-189.332017
20
905.598850
0
VERTEX
5
781
100
AcDbEntity
8
1
100
AcDbVertex
100
AcDb2dVertex
62
1
10
-189.300767
20
905.536350
0
VERTEX
5
782
100
AcDbEntity
8
1
100
AcDbVertex
100
AcDb2dVertex
62
1
10
-189.300767
20
905.442600
0
VERTEX
5
783
100
AcDbEntity
8
1
100
AcDbVertex
100
AcDb2dVertex
62
1
10
-189.332017
20
905.380100
0
VERTEX
5
784
100
AcDbEntity
8
1
100
AcDbVertex
100
AcDb2dVertex
62
1
10
-189.363267
20
905.348850
0
VERTEX
5
785
100
AcDbEntity
8
1
100
AcDbVertex
100
AcDb2dVertex
62
1
10
-189.425767
20
905.317600
0
VERTEX
5
786
100
AcDbEntity
8
1
100
AcDbVertex
100
AcDb2dVertex
62
1
10
-189.582017
20
905.317600
0
SEQEND
5
787
100
AcDbEntity
8
1
0
POLYLINE
5
788
100
AcDbEntity
8
1
6
CONTINUOUS
62
1
100
AcDb2dPolyline
66
1
10
0.0
20
0.0
30
0.0
70
0
0
VERTEX
5
789
100
AcDbEntity
8
1
100
AcDbVertex
100
AcDb2dVertex
62
1
10
-189.425767
20
905.317600
0
VERTEX
5
78a
100
AcDbEntity
8
1
100
AcDbVertex
100
AcDb2dVertex
62
1
10
-189.363267
20
905.286350
0
VERTEX
5
78b
100
AcDbEntity
8
1
100
AcDbVertex
100
AcDb2dVertex
62
1
10
-189.300767
20
905.223850
0
VERTEX
5
78c
100
AcDbEntity
8
1
100
AcDbVertex
100
AcDb2dVertex
62
1
10
-189.269517
20
905.161350
0
VERTEX
5
78d
100
AcDbEntity
8
1
100
AcDbVertex
100
AcDb2dVertex
62
1
10
-189.269517
20
905.036350
0
VERTEX
5
78e
100
AcDbEntity
8
1
100
AcDbVertex
100
AcDb2dVertex
62
1
10
-189.300767
20
904.973850
0
VERTEX
5
78f
100
AcDbEntity
8
1
100
AcDbVertex
100
AcDb2dVertex
62
1
10
-189.332017
20
904.942600
0
VERTEX
5
790
100
AcDbEntity
8
1
100
AcDbVertex
100
AcDb2dVertex
62
1
10
-189.394517
20
904.911350
0
VERTEX
5
791
100
AcDbEntity
8
1
100
AcDbVertex
100
AcDb2dVertex
62
1
10
-189.582017
20
904.911350
0
SEQEND
5
792
100
AcDbEntity
8
1
0
POLYLINE
5
793
100
AcDbEntity
8
1
6
CONTINUOUS
62
1
100
AcDb2dPolyline
66
1
10
0.0
20
0.0
30
0.0
70
1
0
VERTEX
5
794
100
AcDbEntity
8
1
100
AcDbVertex
100
AcDb2dVertex
62
1
10
-188.957017
20
905.661350
0
VERTEX
5
795
100
AcDbEntity
8
1
100
AcDbVertex
100
AcDb2dVertex
62
1
10
-188.894517
20
905.661350
0
VERTEX
5
796
100
AcDbEntity
8
1
100
AcDbVertex
100
AcDb2dVertex
62
1
10
-188.832017
20
905.630100
0
VERTEX
5
797
100
AcDbEntity
8
1
100
AcDbVertex
100
AcDb2dVertex
62
1
10
-188.800767
20
905.598850
0
VERTEX
5
798
100
AcDbEntity
8
1
100
AcDbVertex
100
AcDb2dVertex
62
1
10
-188.769517
20
905.473850
0
VERTEX
5
799
100
AcDbEntity
8
1
100
AcDbVertex
100
AcDb2dVertex
62
1
10
-188.769517
20
905.098850
0
VERTEX
5
79a
100
AcDbEntity
8
1
100
AcDbVertex
100
AcDb2dVertex
62
1
10
-188.800767
20
904.973850
0
VERTEX
5
79b
100
AcDbEntity
8
1
100
AcDbVertex
100
AcDb2dVertex
62
1
10
-188.832017
20
904.942600
0
VERTEX
5
79c
100
AcDbEntity
8
1
100
AcDbVertex
100
AcDb2dVertex
62
1
10
-188.894517
20
904.911350
0
VERTEX
5
79d
100
AcDbEntity
8
1
100
AcDbVertex
100
AcDb2dVertex
62
1
10
-188.957017
20
904.911350
0
VERTEX
5
79e
100
AcDbEntity
8
1
100
AcDbVertex
100
AcDb2dVertex
62
1
10
-189.019517
20
904.942600
0
VERTEX
5
79f
100
AcDbEntity
8
1
100
AcDbVertex
100
AcDb2dVertex
62
1
10
-189.050767
20
904.973850
0
VERTEX
5
7a0
100
AcDbEntity
8
1
100
AcDbVertex
100
AcDb2dVertex
62
1
10
-189.082017
20
905.098850
0
VERTEX
5
7a1
100
AcDbEntity
8
1
100
AcDbVertex
100
AcDb2dVertex
62
1
10
-189.082017
20
905.473850
0
VERTEX
5
7a2
100
AcDbEntity
8
1
100
AcDbVertex
100
AcDb2dVertex
62
1
10
-189.050767
20
905.598850
0
VERTEX
5
7a3
100
AcDbEntity
8
1
100
AcDbVertex
100
AcDb2dVertex
62
1
10
-189.019517
20
905.630100
0
VERTEX
5
7a4
100
AcDbEntity
8
1
100
AcDbVertex
100
AcDb2dVertex
62
1
10
-188.957017
20
905.661350
0
SEQEND
5
7a5
100
AcDbEntity
8
1
0
POLYLINE
5
7a6
100
AcDbEntity
8
1
6
CONTINUOUS
62
1
100
AcDb2dPolyline
66
1
10
0.0
20
0.0
30
0.0
70
0
0
VERTEX
5
7a7
100
AcDbEntity
8
1
100
AcDbVertex
100
AcDb2dVertex
62
1
10
-190.613267
20
905.661350
0
VERTEX
5
7a8
100
AcDbEntity
8
1
100
AcDbVertex
100
AcDb2dVertex
62
1
10
-190.519517
20
904.911350
0
VERTEX
5
7a9
100
AcDbEntity
8
1
100
AcDbVertex
100
AcDb2dVertex
62
1
10
-190.425767
20
905.661350
0
VERTEX
5
7aa
100
AcDbEntity
8
1
100
AcDbVertex
100
AcDb2dVertex
62
1
10
-190.332017
20
904.911350
0
VERTEX
5
7ab
100
AcDbEntity
8
1
100
AcDbVertex
100
AcDb2dVertex
62
1
10
-190.238267
20
905.661350
0
SEQEND
5
7ac
100
AcDbEntity
8
1
0
POLYLINE
5
7ad
100
AcDbEntity
8
1
6
CONTINUOUS
62
1
100
AcDb2dPolyline
66
1
10
0.0
20
0.0
30
0.0
70
0
0
VERTEX
5
7ae
100
AcDbEntity
8
1
100
AcDbVertex
100
AcDb2dVertex
62
1
10
-190.769517
20
905.505100
0
VERTEX
5
7af
100
AcDbEntity
8
1
100
AcDbVertex
100
AcDb2dVertex
62
1
10
-190.832017
20
905.630100
0
VERTEX
5
7b0
100
AcDbEntity
8
1
100
AcDbVertex
100
AcDb2dVertex
62
1
10
-190.925767
20
905.661350
0
VERTEX
5
7b1
100
AcDbEntity
8
1
100
AcDbVertex
100
AcDb2dVertex
62
1
10
-190.988267
20
905.661350
0
VERTEX
5
7b2
100
AcDbEntity
8
1
100
AcDbVertex
100
AcDb2dVertex
62
1
10
-191.050767
20
905.630100
0
VERTEX
5
7b3
100
AcDbEntity
8
1
100
AcDbVertex
100
AcDb2dVertex
62
1
10
-191.113267
20
905.536350
0
VERTEX
5
7b4
100
AcDbEntity
8
1
100
AcDbVertex
100
AcDb2dVertex
62
1
10
-191.113267
20
905.442600
0
VERTEX
5
7b5
100
AcDbEntity
8
1
100
AcDbVertex
100
AcDb2dVertex
62
1
10
-191.050767
20
905.348850
0
VERTEX
5
7b6
100
AcDbEntity
8
1
100
AcDbVertex
100
AcDb2dVertex
62
1
10
-190.832017
20
905.223850
0
VERTEX
5
7b7
100
AcDbEntity
8
1
100
AcDbVertex
100
AcDb2dVertex
62
1
10
-190.769517
20
905.130100
0
VERTEX
5
7b8
100
AcDbEntity
8
1
100
AcDbVertex
100
AcDb2dVertex
62
1
10
-190.769517
20
905.036350
0
VERTEX
5
7b9
100
AcDbEntity
8
1
100
AcDbVertex
100
AcDb2dVertex
62
1
10
-190.832017
20
904.942600
0
VERTEX
5
7ba
100
AcDbEntity
8
1
100
AcDbVertex
100
AcDb2dVertex
62
1
10
-190.925767
20
904.911350
0
VERTEX
5
7bb
100
AcDbEntity
8
1
100
AcDbVertex
100
AcDb2dVertex
62
1
10
-190.988267
20
904.911350
0
VERTEX
5
7bc
100
AcDbEntity
8
1
100
AcDbVertex
100
AcDb2dVertex
62
1
10
-191.082017
20
904.973850
0
VERTEX
5
7bd
100
AcDbEntity
8
1
100
AcDbVertex
100
AcDb2dVertex
62
1
10
-191.113267
20
905.098850
0
SEQEND
5
7be
100
AcDbEntity
8
1
0
LINE
5
7bf
100
AcDbEntity
8
1
100
AcDbLine
6
CONTINUOUS
62
1
10
-188.582017
20
905.661350
11
-188.269517
21
904.911350
0
LINE
5
7c0
100
AcDbEntity
8
1
100
AcDbLine
6
CONTINUOUS
62
1
10
-188.269517
20
905.661350
11
-188.582017
21
904.911350
0
ARC
5
7c1
100
AcDbEntity
8
1
100
AcDbCircle
6
CONTINUOUS
62
5
10
-186.817017
20
898.471350
40
0.600000
100
AcDbArc
50
-89.999999
51
0.000000
0
LINE
5
7c2
100
AcDbEntity
8
1
100
AcDbLine
6
CONTINUOUS
62
5
10
-186.217017
20
898.471350
11
-186.217017
21
904.251350
0
ARC
5
7c3
100
AcDbEntity
8
1
100
AcDbCircle
6
CONTINUOUS
62
5
10
-186.817017
20
904.251350
40
0.600000
100
AcDbArc
50
0.000000
51
89.999999
0
LINE
5
7c4
100
AcDbEntity
8
1
100
AcDbLine
6
CONTINUOUS
62
5
10
-186.817017
20
904.851350
11
-192.597017
21
904.851350
0
ARC
5
7c5
100
AcDbEntity
8
1
100
AcDbCircle
6
CONTINUOUS
62
5
10
-192.597017
20
904.251350
40
0.600000
100
AcDbArc
50
89.999999
51
179.999998
0
LINE
5
7c6
100
AcDbEntity
8
1
100
AcDbLine
6
CONTINUOUS
62
5
10
-193.197017
20
904.251350
11
-193.197017
21
898.471350
0
ARC
5
7c7
100
AcDbEntity
8
1
100
AcDbCircle
6
CONTINUOUS
62
5
10
-192.597017
20
898.471350
40
0.600000
100
AcDbArc
50
179.999998
51
-89.999999
0
LINE
5
7c8
100
AcDbEntity
8
1
100
AcDbLine
6
CONTINUOUS
62
5
10
-192.597017
20
897.871350
11
-186.817017
21
897.871350
0
ARC
5
7c9
100
AcDbEntity
8
1
100
AcDbCircle
6
CONTINUOUS
62
5
10
-197.207017
20
890.861350
40
0.100000
100
AcDbArc
50
179.999998
51
-89.999999
0
LINE
5
7ca
100
AcDbEntity
8
1
100
AcDbLine
6
CONTINUOUS
62
5
10
-197.307017
20
890.861350
11
-197.307017
21
935.541350
0
ARC
5
7cb
100
AcDbEntity
8
1
100
AcDbCircle
6
CONTINUOUS
62
5
10
-197.207017
20
935.541350
40
0.100000
100
AcDbArc
50
89.999999
51
179.999998
0
LINE
5
7cc
100
AcDbEntity
8
1
100
AcDbLine
6
CONTINUOUS
62
5
10
-197.207017
20
935.641350
11
-196.907017
21
935.641350
0
LINE
5
7cd
100
AcDbEntity
8
1
100
AcDbLine
6
CONTINUOUS
62
5
10
-196.867017
20
890.761350
11
-197.207017
21
890.761350
0
ARC
5
7ce
100
AcDbEntity
8
1
100
AcDbCircle
6
CONTINUOUS
62
5
10
-197.207017
20
935.541350
40
0.500000
100
AcDbArc
50
89.999999
51
179.999998
0
LINE
5
7cf
100
AcDbEntity
8
1
100
AcDbLine
6
CONTINUOUS
62
5
10
-197.707017
20
935.541350
11
-197.707017
21
890.861350
0
ARC
5
7d0
100
AcDbEntity
8
1
100
AcDbCircle
6
CONTINUOUS
62
5
10
-197.207017
20
890.861350
40
0.500000
100
AcDbArc
50
179.999998
51
-89.999999
0
LINE
5
7d1
100
AcDbEntity
8
1
100
AcDbLine
6
CONTINUOUS
62
5
10
-197.207017
20
890.361350
11
-196.667017
21
890.361350
0
LINE
5
7d2
100
AcDbEntity
8
1
100
AcDbLine
6
CONTINUOUS
62
5
10
-193.907017
20
936.041350
11
-197.207017
21
936.041350
0
ARC
5
7d3
100
AcDbEntity
8
1
100
AcDbCircle
6
CONTINUOUS
62
5
10
-173.963421
20
903.921350
40
0.400000
100
AcDbArc
50
-89.999999
51
-10.000000
0
LINE
5
7d4
100
AcDbEntity
8
1
100
AcDbLine
6
CONTINUOUS
62
5
10
-173.963421
20
903.521350
11
-180.650612
21
903.521350
0
ARC
5
7d5
100
AcDbEntity
8
1
100
AcDbCircle
6
CONTINUOUS
62
5
10
-180.650612
20
903.921350
40
0.400000
100
AcDbArc
50
-169.999998
51
-89.999999
0
LINE
5
7d6
100
AcDbEntity
8
1
100
AcDbLine
6
CONTINUOUS
62
5
10
-181.044535
20
903.851891
11
-181.197940
21
904.721891
0
ARC
5
7d7
100
AcDbEntity
8
1
100
AcDbCircle
6
CONTINUOUS
62
5
10
-180.804017
20
904.791350
40
0.400000
100
AcDbArc
50
89.999999
51
-169.999998
0
LINE
5
7d8
100
AcDbEntity
8
1
100
AcDbLine
6
CONTINUOUS
62
5
10
-180.804017
20
905.191350
11
-173.810017
21
905.191350
0
ARC
5
7d9
100
AcDbEntity
8
1
100
AcDbCircle
6
CONTINUOUS
62
5
10
-173.810017
20
904.791350
40
0.400000
100
AcDbArc
50
-10.000000
51
89.999999
0
LINE
5
7da
100
AcDbEntity
8
1
100
AcDbLine
6
CONTINUOUS
62
5
10
-173.416094
20
904.721891
11
-173.569498
21
903.851891
0
ARC
5
7db
100
AcDbEntity
8
1
100
AcDbCircle
6
CONTINUOUS
62
5
10
-172.307017
20
903.311350
40
0.400000
100
AcDbArc
50
-89.999999
51
0.000000
0
LINE
5
7dc
100
AcDbEntity
8
1
100
AcDbLine
6
CONTINUOUS
62
5
10
-171.907017
20
903.311350
11
-171.907017
21
905.411350
0
ARC
5
7dd
100
AcDbEntity
8
1
100
AcDbCircle
6
CONTINUOUS
62
5
10
-172.307017
20
905.411350
40
0.400000
100
AcDbArc
50
0.000000
51
89.999999
0
LINE
5
7de
100
AcDbEntity
8
1
100
AcDbLine
6
CONTINUOUS
62
5
10
-172.307017
20
905.811350
11
-182.307017
21
905.811350
0
ARC
5
7df
100
AcDbEntity
8
1
100
AcDbCircle
6
CONTINUOUS
62
5
10
-182.307017
20
905.411350
40
0.400000
100
AcDbArc
50
89.999999
51
179.999998
0
LINE
5
7e0
100
AcDbEntity
8
1
100
AcDbLine
6
CONTINUOUS
62
5
10
-182.707017
20
905.411350
11
-182.707017
21
903.311350
0
ARC
5
7e1
100
AcDbEntity
8
1
100
AcDbCircle
6
CONTINUOUS
62
5
10
-182.307017
20
903.311350
40
0.400000
100
AcDbArc
50
179.999998
51
-89.999999
0
LINE
5
7e2
100
AcDbEntity
8
1
100
AcDbLine
6
CONTINUOUS
62
5
10
-182.307017
20
902.911350
11
-172.307017
21
902.911350
0
ARC
5
7e3
100
AcDbEntity
8
1
100
AcDbCircle
6
CONTINUOUS
62
5
10
-172.407017
20
905.211350
40
0.400000
100
AcDbArc
50
0.000000
51
89.999999
0
LINE
5
7e4
100
AcDbEntity
8
1
100
AcDbLine
6
CONTINUOUS
62
5
10
-172.407017
20
905.611350
11
-182.207017
21
905.611350
0
ARC
5
7e5
100
AcDbEntity
8
1
100
AcDbCircle
6
CONTINUOUS
62
5
10
-182.207017
20
905.211350
40
0.400000
100
AcDbArc
50
89.999999
51
179.999998
0
LINE
5
7e6
100
AcDbEntity
8
1
100
AcDbLine
6
CONTINUOUS
62
5
10
-182.607017
20
905.211350
11
-182.607017
21
903.501350
0
ARC
5
7e7
100
AcDbEntity
8
1
100
AcDbCircle
6
CONTINUOUS
62
5
10
-182.207017
20
903.501350
40
0.400000
100
AcDbArc
50
179.999998
51
-89.999999
0
LINE
5
7e8
100
AcDbEntity
8
1
100
AcDbLine
6
CONTINUOUS
62
5
10
-182.207017
20
903.101350
11
-172.407017
21
903.101350
0
ARC
5
7e9
100
AcDbEntity
8
1
100
AcDbCircle
6
CONTINUOUS
62
5
10
-172.407017
20
903.501350
40
0.400000
100
AcDbArc
50
-89.999999
51
0.000000
0
LINE
5
7ea
100
AcDbEntity
8
1
100
AcDbLine
6
CONTINUOUS
62
5
10
-172.007017
20
903.501350
11
-172.007017
21
905.211350
0
ARC
5
7eb
100
AcDbEntity
8
1
100
AcDbCircle
6
CONTINUOUS
62
5
10
-196.987017
20
935.701350
40
0.100000
100
AcDbArc
50
-89.999999
51
0.000000
0
POLYLINE
5
7ec
100
AcDbEntity
8
1
6
CONTINUOUS
62
5
100
AcDb2dPolyline
66
1
10
0.0
20
0.0
30
0.0
70
0
0
VERTEX
5
7ed
100
AcDbEntity
8
1
100
AcDbVertex
100
AcDb2dVertex
62
5
10
-196.887017
20
935.701350
0
VERTEX
5
7ee
100
AcDbEntity
8
1
100
AcDbVertex
100
AcDb2dVertex
62
5
10
-196.887017
20
936.041350
0
VERTEX
5
7ef
100
AcDbEntity
8
1
100
AcDbVertex
100
AcDb2dVertex
62
5
10
-142.707017
20
936.041350
0
SEQEND
5
7f0
100
AcDbEntity
8
1
0
LINE
5
7f1
100
AcDbEntity
8
1
100
AcDbLine
6
CONTINUOUS
62
5
10
-142.707017
20
890.361350
11
-196.667017
21
890.361350
0
ARC
5
7f2
100
AcDbEntity
8
1
100
AcDbCircle
6
CONTINUOUS
62
5
10
-196.667017
20
890.561350
40
0.200000
100
AcDbArc
50
179.999998
51
-89.999999
0
POLYLINE
5
7f3
100
AcDbEntity
8
1
6
CONTINUOUS
62
5
100
AcDb2dPolyline
66
1
10
0.0
20
0.0
30
0.0
70
0
0
VERTEX
5
7f4
100
AcDbEntity
8
1
100
AcDbVertex
100
AcDb2dVertex
62
5
10
-196.867017
20
890.561350
0
VERTEX
5
7f5
100
AcDbEntity
8
1
100
AcDbVertex
100
AcDb2dVertex
62
5
10
-196.867017
20
890.961350
0
VERTEX
5
7f6
100
AcDbEntity
8
1
100
AcDbVertex
100
AcDb2dVertex
62
5
10
-197.307017
20
890.961350
0
VERTEX
5
7f7
100
AcDbEntity
8
1
100
AcDbVertex
100
AcDb2dVertex
62
5
10
-197.307017
20
935.601350
0
VERTEX
5
7f8
100
AcDbEntity
8
1
100
AcDbVertex
100
AcDb2dVertex
62
5
10
-196.987017
20
935.601350
0
SEQEND
5
7f9
100
AcDbEntity
8
1
0
ARC
5
7fa
100
AcDbEntity
8
1
100
AcDbCircle
6
CONTINUOUS
62
5
10
-89.527017
20
935.701350
40
0.100000
100
AcDbArc
50
179.999998
51
-89.999999
0
POLYLINE
5
7fb
100
AcDbEntity
8
1
6
CONTINUOUS
62
5
100
AcDb2dPolyline
66
1
10
0.0
20
0.0
30
0.0
70
0
0
VERTEX
5
7fc
100
AcDbEntity
8
1
100
AcDbVertex
100
AcDb2dVertex
62
5
10
-89.527017
20
935.601350
0
VERTEX
5
7fd
100
AcDbEntity
8
1
100
AcDbVertex
100
AcDb2dVertex
62
5
10
-88.027017
20
935.601350
0
VERTEX
5
7fe
100
AcDbEntity
8
1
100
AcDbVertex
100
AcDb2dVertex
62
5
10
-88.027017
20
913.361350
0
SEQEND
5
7ff
100
AcDbEntity
8
1
0
POLYLINE
5
800
100
AcDbEntity
8
1
6
CONTINUOUS
62
5
100
AcDb2dPolyline
66
1
10
0.0
20
0.0
30
0.0
70
0
0
VERTEX
5
801
100
AcDbEntity
8
1
100
AcDbVertex
100
AcDb2dVertex
62
5
10
-142.707017
20
936.041350
0
VERTEX
5
802
100
AcDbEntity
8
1
100
AcDbVertex
100
AcDb2dVertex
62
5
10
-89.627017
20
936.041350
0
VERTEX
5
803
100
AcDbEntity
8
1
100
AcDbVertex
100
AcDb2dVertex
62
5
10
-89.627017
20
935.701350
0
SEQEND
5
804
100
AcDbEntity
8
1
0
LINE
5
805
100
AcDbEntity
8
1
100
AcDbLine
6
CONTINUOUS
62
5
10
-142.707017
20
890.361350
11
-88.527017
21
890.361350
0
ARC
5
806
100
AcDbEntity
8
1
100
AcDbCircle
6
CONTINUOUS
62
5
10
-88.227017
20
890.561350
40
0.200000
100
AcDbArc
50
-89.999999
51
0.000000
0
POLYLINE
5
807
100
AcDbEntity
8
1
6
CONTINUOUS
62
5
100
AcDb2dPolyline
66
1
10
0.0
20
0.0
30
0.0
70
0
0
VERTEX
5
808
100
AcDbEntity
8
1
100
AcDbVertex
100
AcDb2dVertex
62
5
10
-88.027017
20
890.561350
0
VERTEX
5
809
100
AcDbEntity
8
1
100
AcDbVertex
100
AcDb2dVertex
62
5
10
-88.027017
20
893.661350
0
VERTEX
5
80a
100
AcDbEntity
8
1
100
AcDbVertex
100
AcDb2dVertex
62
5
10
-88.527017
20
893.661350
0
VERTEX
5
80b
100
AcDbEntity
8
1
100
AcDbVertex
100
AcDb2dVertex
62
5
10
-88.527017
20
894.361350
0
VERTEX
5
80c
100
AcDbEntity
8
1
100
AcDbVertex
100
AcDb2dVertex
62
5
10
-88.027017
20
894.361350
0
VERTEX
5
80d
100
AcDbEntity
8
1
100
AcDbVertex
100
AcDb2dVertex
62
5
10
-88.027017
20
913.361350
0
SEQEND
5
80e
100
AcDbEntity
8
1
0
LINE
5
80f
100
AcDbEntity
8
1
100
AcDbLine
6
CONTINUOUS
62
5
10
-142.707017
20
890.361350
11
-88.227017
21
890.361350
0
ARC
5
810
100
AcDbEntity
8
1
100
AcDbCircle
6
CONTINUOUS
62
5
10
-88.107017
20
935.961350
40
0.400000
100
AcDbArc
50
0.000000
51
89.999999
0
POLYLINE
5
811
100
AcDbEntity
8
1
6
CONTINUOUS
62
5
100
AcDb2dPolyline
66
1
10
0.0
20
0.0
30
0.0
70
0
0
VERTEX
5
812
100
AcDbEntity
8
1
100
AcDbVertex
100
AcDb2dVertex
62
5
10
-88.107017
20
936.361350
0
VERTEX
5
813
100
AcDbEntity
8
1
100
AcDbVertex
100
AcDb2dVertex
62
5
10
-197.707017
20
936.361350
0
VERTEX
5
814
100
AcDbEntity
8
1
100
AcDbVertex
100
AcDb2dVertex
62
5
10
-197.707017
20
936.041350
0
VERTEX
5
815
100
AcDbEntity
8
1
100
AcDbVertex
100
AcDb2dVertex
62
5
10
-88.127017
20
936.041350
0
SEQEND
5
816
100
AcDbEntity
8
1
0
ARC
5
817
100
AcDbEntity
8
1
100
AcDbCircle
6
CONTINUOUS
62
5
10
-88.127017
20
935.941350
40
0.100000
100
AcDbArc
50
0.000000
51
89.999999
0
POLYLINE
5
818
100
AcDbEntity
8
1
6
CONTINUOUS
62
5
100
AcDb2dPolyline
66
1
10
0.0
20
0.0
30
0.0
70
0
0
VERTEX
5
819
100
AcDbEntity
8
1
100
AcDbVertex
100
AcDb2dVertex
62
5
10
-88.027017
20
935.941350
0
VERTEX
5
81a
100
AcDbEntity
8
1
100
AcDbVertex
100
AcDb2dVertex
62
5
10
-88.027017
20
890.361350
0
VERTEX
5
81b
100
AcDbEntity
8
1
100
AcDbVertex
100
AcDb2dVertex
62
5
10
-87.707017
20
890.361350
0
VERTEX
5
81c
100
AcDbEntity
8
1
100
AcDbVertex
100
AcDb2dVertex
62
5
10
-87.707017
20
935.961350
0
SEQEND
5
81d
100
AcDbEntity
8
1
0
POLYLINE
5
81e
100
AcDbEntity
8
1
6
CONTINUOUS
62
5
100
AcDb2dPolyline
66
1
10
0.0
20
0.0
30
0.0
70
1
0
VERTEX
5
81f
100
AcDbEntity
8
1
100
AcDbVertex
100
AcDb2dVertex
62
5
10
-98.935501
20
854.024327
0
VERTEX
5
820
100
AcDbEntity
8
1
100
AcDbVertex
100
AcDb2dVertex
62
5
10
-98.935501
20
854.344327
0
VERTEX
5
821
100
AcDbEntity
8
1
100
AcDbVertex
100
AcDb2dVertex
62
5
10
-178.535501
20
854.344327
0
VERTEX
5
822
100
AcDbEntity
8
1
100
AcDbVertex
100
AcDb2dVertex
62
5
10
-178.535501
20
854.024327
0
SEQEND
5
823
100
AcDbEntity
8
1
0
ARC
5
824
100
AcDbEntity
8
1
100
AcDbCircle
6
CONTINUOUS
62
5
10
-103.935501
20
834.344327
40
8.000000
100
AcDbArc
50
-17.495302
51
17.495306
0
LINE
5
825
100
AcDbEntity
8
1
100
AcDbLine
6
CONTINUOUS
62
5
10
-98.640031
20
834.340681
11
-98.640031
21
837.124326
0
LINE
5
826
100
AcDbEntity
8
1
100
AcDbLine
6
CONTINUOUS
62
5
10
-98.755501
20
836.913627
11
-98.755501
21
834.344327
0
LINE
5
827
100
AcDbEntity
8
1
100
AcDbLine
6
CONTINUOUS
62
5
10
-97.585129
20
837.124326
11
-98.640033
21
837.124326
0
LINE
5
828
100
AcDbEntity
8
1
100
AcDbLine
6
CONTINUOUS
62
5
10
-98.640034
20
837.124327
11
-98.750144
21
836.933606
0
ARC
5
829
100
AcDbEntity
8
1
100
AcDbCircle
6
CONTINUOUS
62
5
10
-98.715501
20
836.913627
40
0.040000
100
AcDbArc
50
150.000210
51
179.999998
0
POLYLINE
5
82a
100
AcDbEntity
8
1
6
CONTINUOUS
62
5
100
AcDb2dPolyline
66
1
10
0.0
20
0.0
30
0.0
70
1
0
VERTEX
5
82b
100
AcDbEntity
8
1
100
AcDbVertex
100
AcDb2dVertex
62
5
10
-98.935501
20
836.804328
0
VERTEX
5
82c
100
AcDbEntity
8
1
100
AcDbVertex
100
AcDb2dVertex
62
5
10
-98.755501
20
836.804328
0
SEQEND
5
82d
100
AcDbEntity
8
1
0
LINE
5
82e
100
AcDbEntity
8
1
100
AcDbLine
6
CONTINUOUS
62
5
10
-97.585129
20
831.564329
11
-98.640031
21
831.564329
0
POLYLINE
5
82f
100
AcDbEntity
8
1
6
CONTINUOUS
62
5
100
AcDb2dPolyline
66
1
10
0.0
20
0.0
30
0.0
70
1
0
VERTEX
5
830
100
AcDbEntity
8
1
100
AcDbVertex
100
AcDb2dVertex
62
5
10
-98.935501
20
831.884327
0
VERTEX
5
831
100
AcDbEntity
8
1
100
AcDbVertex
100
AcDb2dVertex
62
5
10
-98.755501
20
831.884327
0
SEQEND
5
832
100
AcDbEntity
8
1
0
LINE
5
833
100
AcDbEntity
8
1
100
AcDbLine
6
CONTINUOUS
62
5
10
-98.750143
20
831.755048
11
-98.640031
21
831.564329
0
ARC
5
834
100
AcDbEntity
8
1
100
AcDbCircle
6
CONTINUOUS
62
5
10
-98.715501
20
831.775046
40
0.040000
100
AcDbArc
50
179.999998
51
-149.999998
0
LINE
5
835
100
AcDbEntity
8
1
100
AcDbLine
6
CONTINUOUS
62
5
10
-101.432486
20
831.047342
11
-100.838516
21
831.641312
0
LINE
5
836
100
AcDbEntity
8
1
100
AcDbLine
6
CONTINUOUS
62
5
10
-101.432486
20
831.641312
11
-100.838516
21
831.047342
0
CIRCLE
5
837
100
AcDbEntity
8
1
100
AcDbCircle
6
CONTINUOUS
62
5
10
-101.135501
20
831.344327
40
0.940000
0
LINE
5
838
100
AcDbEntity
8
1
100
AcDbLine
6
CONTINUOUS
62
5
10
-97.585129
20
831.564329
11
-97.585129
21
837.124326
0
LINE
5
839
100
AcDbEntity
8
1
100
AcDbLine
6
CONTINUOUS
62
5
10
-98.640031
20
831.564329
11
-98.640031
21
834.347973
0
LINE
5
83a
100
AcDbEntity
8
1
100
AcDbLine
6
CONTINUOUS
62
5
10
-98.755501
20
834.344327
11
-98.755501
21
831.775046
0
LINE
5
83b
100
AcDbEntity
8
0
100
AcDbLine
6
CONTINUOUS
62
5
10
-97.935491
20
820.844331
11
-97.935491
21
823.064350
0
ARC
5
83c
100
AcDbEntity
8
0
100
AcDbCircle
6
CONTINUOUS
62
5
10
-98.075501
20
820.643080
40
0.040000
100
AcDbArc
50
-88.191096
51
0.000010
0
LINE
5
83d
100
AcDbEntity
8
0
100
AcDbLine
6
CONTINUOUS
62
5
10
-97.935491
20
820.844331
11
-98.035491
21
820.744331
0
POLYLINE
5
83e
100
AcDbEntity
8
0
6
CONTINUOUS
62
5
100
AcDb2dPolyline
66
1
10
0.0
20
0.0
30
0.0
70
1
0
VERTEX
5
83f
100
AcDbEntity
8
0
100
AcDbVertex
100
AcDb2dVertex
62
5
10
-98.935501
20
820.575905
0
VERTEX
5
840
100
AcDbEntity
8
0
100
AcDbVertex
100
AcDb2dVertex
62
5
10
-98.074241
20
820.603100
0
SEQEND
5
841
100
AcDbEntity
8
0
0
LINE
5
842
100
AcDbEntity
8
0
100
AcDbLine
6
CONTINUOUS
62
5
10
-98.035501
20
820.643080
11
-98.035501
21
824.045571
0
LINE
5
843
100
AcDbEntity
8
0
100
AcDbLine
6
CONTINUOUS
62
5
10
-97.935491
20
823.064350
11
-97.935491
21
823.844331
0
ARC
5
844
100
AcDbEntity
8
0
100
AcDbCircle
6
CONTINUOUS
62
5
10
-98.075501
20
824.045571
40
0.040000
100
AcDbArc
50
0.000010
51
88.191009
0
LINE
5
845
100
AcDbEntity
8
0
100
AcDbLine
6
CONTINUOUS
62
5
10
-97.935491
20
823.844331
11
-98.035491
21
823.944331
0
LINE
5
846
100
AcDbEntity
8
0
100
AcDbLine
6
CONTINUOUS
62
5
10
-98.074241
20
824.085550
11
-98.935501
21
824.112749
0
LINE
5
847
100
AcDbEntity
8
1
100
AcDbLine
6
CONTINUOUS
62
5
10
-106.982486
20
816.391312
11
-106.388516
21
815.797342
0
LINE
5
848
100
AcDbEntity
8
1
100
AcDbLine
6
CONTINUOUS
62
5
10
-106.982486
20
815.797342
11
-106.388516
21
816.391312
0
CIRCLE
5
849
100
AcDbEntity
8
1
100
AcDbCircle
6
CONTINUOUS
62
5
10
-106.685501
20
816.094327
40
0.940000
0
CIRCLE
5
84a
100
AcDbEntity
8
1
100
AcDbCircle
6
CONTINUOUS
62
5
10
-123.185501
20
832.594327
40
0.940000
0
LINE
5
84b
100
AcDbEntity
8
1
100
AcDbLine
6
CONTINUOUS
62
5
10
-123.482486
20
832.297342
11
-122.888516
21
832.891312
0
LINE
5
84c
100
AcDbEntity
8
1
100
AcDbLine
6
CONTINUOUS
62
5
10
-123.482486
20
832.891312
11
-122.888516
21
832.297342
0
CIRCLE
5
84d
100
AcDbEntity
8
1
100
AcDbCircle
6
CONTINUOUS
62
5
10
-114.935501
20
824.344327
40
9.000000
0
ARC
5
84e
100
AcDbEntity
8
1
100
AcDbCircle
6
CONTINUOUS
62
5
10
-99.755501
20
808.844327
40
0.100000
100
AcDbArc
50
-89.999999
51
0.000000
0
LINE
5
84f
100
AcDbEntity
8
1
100
AcDbLine
6
CONTINUOUS
62
5
10
-99.755501
20
808.744327
11
-99.855501
21
808.744327
0
LINE
5
850
100
AcDbEntity
8
1
100
AcDbLine
6
CONTINUOUS
62
5
10
-99.655501
20
808.944327
11
-99.655501
21
808.844327
0
ARC
5
851
100
AcDbEntity
8
1
100
AcDbCircle
6
CONTINUOUS
62
5
10
-99.755501
20
808.844327
40
0.500000
100
AcDbArc
50
-89.999999
51
0.000000
0
LINE
5
852
100
AcDbEntity
8
1
100
AcDbLine
6
CONTINUOUS
62
5
10
-99.755501
20
808.344327
11
-99.855501
21
808.344327
0
LINE
5
853
100
AcDbEntity
8
1
100
AcDbLine
6
CONTINUOUS
62
5
10
-99.255501
20
808.944327
11
-99.255501
21
808.844327
0
CIRCLE
5
854
100
AcDbEntity
8
1
100
AcDbCircle
6
DOT2
62
5
10
-103.335501
20
812.344327
40
0.400000
0
CIRCLE
5
855
100
AcDbEntity
8
1
100
AcDbCircle
6
CONTINUOUS
62
5
10
-103.335501
20
812.344327
40
0.300000
0
LINE
5
856
100
AcDbEntity
8
1
100
AcDbLine
6
DOT2
62
5
10
-108.935501
20
809.344327
11
-108.935501
21
807.744327
0
LINE
5
857
100
AcDbEntity
8
0
100
AcDbLine
6
DOT2
62
5
10
-108.935501
20
808.744327
11
-108.935501
21
805.944327
0
ARC
5
858
100
AcDbEntity
8
0
100
AcDbCircle
6
CONTINUOUS
62
5
10
-107.191657
20
806.544327
40
0.200000
100
AcDbArc
50
-89.999999
51
-14.036243
0
LINE
5
859
100
AcDbEntity
8
0
100
AcDbLine
6
CONTINUOUS
62
5
10
-107.191657
20
806.344327
11
-110.679346
21
806.344327
0
ARC
5
85a
100
AcDbEntity
8
0
100
AcDbCircle
6
CONTINUOUS
62
5
10
-110.679346
20
806.544327
40
0.200000
100
AcDbArc
50
-165.963755
51
-89.999999
0
POLYLINE
5
85b
100
AcDbEntity
8
0
6
CONTINUOUS
62
5
100
AcDb2dPolyline
66
1
10
0.0
20
0.0
30
0.0
70
0
0
VERTEX
5
85c
100
AcDbEntity
8
0
100
AcDbVertex
100
AcDb2dVertex
62
5
10
-110.873374
20
806.495820
0
VERTEX
5
85d
100
AcDbEntity
8
0
100
AcDbVertex
100
AcDb2dVertex
62
5
10
-111.335501
20
808.344327
0
VERTEX
5
85e
100
AcDbEntity
8
0
100
AcDbVertex
100
AcDb2dVertex
62
5
10
-106.535501
20
808.344327
0
VERTEX
5
85f
100
AcDbEntity
8
0
100
AcDbVertex
100
AcDb2dVertex
62
5
10
-106.997628
20
806.495820
0
SEQEND
5
860
100
AcDbEntity
8
0
0
LINE
5
861
100
AcDbEntity
8
1
100
AcDbLine
6
CONTINUOUS
62
5
10
-96.935499
20
833.417286
11
-97.235499
21
833.417286
0
LINE
5
862
100
AcDbEntity
8
1
100
AcDbLine
6
CONTINUOUS
62
5
10
-96.935499
20
833.509327
11
-97.235499
21
833.509327
0
LINE
5
863
100
AcDbEntity
8
1
100
AcDbLine
6
CONTINUOUS
62
5
10
-96.935499
20
833.567887
11
-97.235499
21
833.567887
0
LINE
5
864
100
AcDbEntity
8
1
100
AcDbLine
6
CONTINUOUS
62
5
10
-96.935499
20
833.658008
11
-97.235499
21
833.658008
0
LINE
5
865
100
AcDbEntity
8
1
100
AcDbLine
6
CONTINUOUS
62
5
10
-96.935499
20
834.187327
11
-97.235499
21
834.187327
0
LINE
5
866
100
AcDbEntity
8
1
100
AcDbLine
6
CONTINUOUS
62
5
10
-96.935499
20
834.267368
11
-97.235499
21
834.267368
0
LINE
5
867
100
AcDbEntity
8
1
100
AcDbLine
6
CONTINUOUS
62
5
10
-96.935499
20
834.113666
11
-97.235499
21
834.113666
0
LINE
5
868
100
AcDbEntity
8
1
100
AcDbLine
6
CONTINUOUS
62
5
10
-96.935499
20
834.030747
11
-97.235499
21
834.030747
0
LINE
5
869
100
AcDbEntity
8
1
100
AcDbLine
6
CONTINUOUS
62
5
10
-96.935499
20
833.960587
11
-97.235499
21
833.960587
0
LINE
5
86a
100
AcDbEntity
8
1
100
AcDbLine
6
CONTINUOUS
62
5
10
-96.935499
20
833.875028
11
-97.235499
21
833.875028
0
LINE
5
86b
100
AcDbEntity
8
1
100
AcDbLine
6
CONTINUOUS
62
5
10
-96.935499
20
833.720588
11
-97.235499
21
833.720588
0
LINE
5
86c
100
AcDbEntity
8
1
100
AcDbLine
6
CONTINUOUS
62
5
10
-96.935499
20
833.808567
11
-97.235499
21
833.808567
0
LINE
5
86d
100
AcDbEntity
8
1
100
AcDbLine
6
CONTINUOUS
62
5
10
-96.935499
20
835.564548
11
-97.235499
21
835.564548
0
LINE
5
86e
100
AcDbEntity
8
1
100
AcDbLine
6
CONTINUOUS
62
5
10
-96.935499
20
835.469407
11
-97.235499
21
835.469407
0
LINE
5
86f
100
AcDbEntity
8
1
100
AcDbLine
6
CONTINUOUS
62
5
10
-96.935499
20
836.351728
11
-97.235499
21
836.351728
0
LINE
5
870
100
AcDbEntity
8
1
100
AcDbLine
6
CONTINUOUS
62
5
10
-96.935499
20
836.368088
11
-97.235499
21
836.368088
0
LINE
5
871
100
AcDbEntity
8
1
100
AcDbLine
6
CONTINUOUS
62
5
10
-96.935499
20
836.476926
11
-97.235499
21
836.476926
0
LINE
5
872
100
AcDbEntity
8
1
100
AcDbLine
6
CONTINUOUS
62
5
10
-96.935499
20
836.465647
11
-97.235499
21
836.465647
0
LINE
5
873
100
AcDbEntity
8
1
100
AcDbLine
6
CONTINUOUS
62
5
10
-96.935499
20
836.675767
11
-97.235499
21
836.675767
0
LINE
5
874
100
AcDbEntity
8
1
100
AcDbLine
6
CONTINUOUS
62
5
10
-96.935499
20
836.860346
11
-97.235499
21
836.860346
0
LINE
5
875
100
AcDbEntity
8
1
100
AcDbLine
6
CONTINUOUS
62
5
10
-96.935499
20
836.771387
11
-97.235499
21
836.771387
0
LINE
5
876
100
AcDbEntity
8
1
100
AcDbLine
6
CONTINUOUS
62
5
10
-96.935499
20
836.942408
11
-97.235499
21
836.942408
0
LINE
5
877
100
AcDbEntity
8
1
100
AcDbLine
6
CONTINUOUS
62
5
10
-96.935499
20
836.579926
11
-97.235499
21
836.579926
0
LINE
5
878
100
AcDbEntity
8
1
100
AcDbLine
6
CONTINUOUS
62
5
10
-96.935499
20
836.573768
11
-97.235499
21
836.573768
0
LINE
5
879
100
AcDbEntity
8
1
100
AcDbLine
6
CONTINUOUS
62
5
10
-96.935499
20
837.278766
11
-97.235499
21
837.278766
0
LINE
5
87a
100
AcDbEntity
8
1
100
AcDbLine
6
CONTINUOUS
62
5
10
-96.935499
20
837.242106
11
-97.235499
21
837.242106
0
LINE
5
87b
100
AcDbEntity
8
1
100
AcDbLine
6
CONTINUOUS
62
5
10
-96.935499
20
837.197507
11
-97.235499
21
837.197507
0
LINE
5
87c
100
AcDbEntity
8
1
100
AcDbLine
6
CONTINUOUS
62
5
10
-96.935499
20
837.145066
11
-97.235499
21
837.145066
0
LINE
5
87d
100
AcDbEntity
8
1
100
AcDbLine
6
CONTINUOUS
62
5
10
-96.935499
20
837.084968
11
-97.235499
21
837.084968
0
LINE
5
87e
100
AcDbEntity
8
1
100
AcDbLine
6
CONTINUOUS
62
5
10
-96.935499
20
837.017347
11
-97.235499
21
837.017347
0
LINE
5
87f
100
AcDbEntity
8
1
100
AcDbLine
6
CONTINUOUS
62
5
10
-96.935499
20
837.344327
11
-97.235499
21
837.344327
0
LINE
5
880
100
AcDbEntity
8
1
100
AcDbLine
6
CONTINUOUS
62
5
10
-96.935499
20
837.340207
11
-97.235499
21
837.340207
0
LINE
5
881
100
AcDbEntity
8
1
100
AcDbLine
6
CONTINUOUS
62
5
10
-96.935499
20
837.327906
11
-97.235499
21
837.327906
0
LINE
5
882
100
AcDbEntity
8
1
100
AcDbLine
6
CONTINUOUS
62
5
10
-96.935499
20
837.307386
11
-97.235499
21
837.307386
0
ARC
5
883
100
AcDbEntity
8
1
100
AcDbCircle
6
CONTINUOUS
62
5
10
-97.095831
20
836.466306
40
0.820000
100
AcDbArc
50
99.806878
51
126.634310
0
LINE
5
884
100
AcDbEntity
8
1
100
AcDbLine
6
CONTINUOUS
62
5
10
-96.935499
20
835.978248
11
-97.235499
21
835.978248
0
LINE
5
885
100
AcDbEntity
8
1
100
AcDbLine
6
CONTINUOUS
62
5
10
-96.935499
20
835.880466
11
-97.235499
21
835.880466
0
LINE
5
886
100
AcDbEntity
8
1
100
AcDbLine
6
CONTINUOUS
62
5
10
-96.935499
20
835.844327
11
-97.235499
21
835.844327
0
LINE
5
887
100
AcDbEntity
8
1
100
AcDbLine
6
CONTINUOUS
62
5
10
-96.935499
20
835.706308
11
-97.235499
21
835.706308
0
LINE
5
888
100
AcDbEntity
8
1
100
AcDbLine
6
CONTINUOUS
62
5
10
-96.935499
20
835.747168
11
-97.235499
21
835.747168
0
LINE
5
889
100
AcDbEntity
8
1
100
AcDbLine
6
CONTINUOUS
62
5
10
-96.935499
20
835.610029
11
-97.235499
21
835.610029
0
LINE
5
88a
100
AcDbEntity
8
1
100
AcDbLine
6
CONTINUOUS
62
5
10
-96.935499
20
836.009568
11
-97.235499
21
836.009568
0
LINE
5
88b
100
AcDbEntity
8
1
100
AcDbLine
6
CONTINUOUS
62
5
10
-96.935499
20
836.232288
11
-97.235499
21
836.232288
0
LINE
5
88c
100
AcDbEntity
8
1
100
AcDbLine
6
CONTINUOUS
62
5
10
-96.935499
20
836.134086
11
-97.235499
21
836.134086
0
LINE
5
88d
100
AcDbEntity
8
1
100
AcDbLine
6
CONTINUOUS
62
5
10
-96.935499
20
836.107688
11
-97.235499
21
836.107688
0
LINE
5
88e
100
AcDbEntity
8
1
100
AcDbLine
6
CONTINUOUS
62
5
10
-96.935499
20
836.253708
11
-97.235499
21
836.253708
0
LINE
5
88f
100
AcDbEntity
8
1
100
AcDbLine
6
CONTINUOUS
62
5
10
-96.935499
20
835.120786
11
-97.235499
21
835.120786
0
LINE
5
890
100
AcDbEntity
8
1
100
AcDbLine
6
CONTINUOUS
62
5
10
-96.935499
20
835.030668
11
-97.235499
21
835.030668
0
LINE
5
891
100
AcDbEntity
8
1
100
AcDbLine
6
CONTINUOUS
62
5
10
-96.935499
20
834.968067
11
-97.235499
21
834.968067
0
LINE
5
892
100
AcDbEntity
8
1
100
AcDbLine
6
CONTINUOUS
62
5
10
-96.935499
20
835.179328
11
-97.235499
21
835.179328
0
LINE
5
893
100
AcDbEntity
8
1
100
AcDbLine
6
CONTINUOUS
62
5
10
-96.935499
20
835.325727
11
-97.235499
21
835.325727
0
LINE
5
894
100
AcDbEntity
8
1
100
AcDbLine
6
CONTINUOUS
62
5
10
-96.935499
20
835.271387
11
-97.235499
21
835.271387
0
LINE
5
895
100
AcDbEntity
8
1
100
AcDbLine
6
CONTINUOUS
62
5
10
-96.935499
20
835.419428
11
-97.235499
21
835.419428
0
LINE
5
896
100
AcDbEntity
8
1
100
AcDbLine
6
CONTINUOUS
62
5
10
-96.935499
20
834.880088
11
-97.235499
21
834.880088
0
LINE
5
897
100
AcDbEntity
8
1
100
AcDbLine
6
CONTINUOUS
62
5
10
-96.935499
20
834.344327
11
-97.235499
21
834.344327
0
LINE
5
898
100
AcDbEntity
8
1
100
AcDbLine
6
CONTINUOUS
62
5
10
-96.935499
20
834.421287
11
-97.235499
21
834.421287
0
LINE
5
899
100
AcDbEntity
8
1
100
AcDbLine
6
CONTINUOUS
62
5
10
-96.935499
20
834.501346
11
-97.235499
21
834.501346
0
LINE
5
89a
100
AcDbEntity
8
1
100
AcDbLine
6
CONTINUOUS
62
5
10
-96.935499
20
834.574988
11
-97.235499
21
834.574988
0
LINE
5
89b
100
AcDbEntity
8
1
100
AcDbLine
6
CONTINUOUS
62
5
10
-96.935499
20
834.813627
11
-97.235499
21
834.813627
0
LINE
5
89c
100
AcDbEntity
8
1
100
AcDbLine
6
CONTINUOUS
62
5
10
-96.935499
20
834.728068
11
-97.235499
21
834.728068
0
LINE
5
89d
100
AcDbEntity
8
1
100
AcDbLine
6
CONTINUOUS
62
5
10
-96.935499
20
834.657908
11
-97.235499
21
834.657908
0
ARC
5
89e
100
AcDbEntity
8
1
100
AcDbCircle
6
CONTINUOUS
62
5
10
-97.075171
20
836.466306
40
0.820000
100
AcDbArc
50
20.192698
51
80.193122
0
LINE
5
89f
100
AcDbEntity
8
1
100
AcDbLine
6
DOT2
62
5
10
-95.560316
20
834.344327
11
-99.601225
21
834.344327
0
LINE
5
8a0
100
AcDbEntity
8
1
100
AcDbLine
6
CONTINUOUS
62
5
10
-96.935499
20
832.580967
11
-97.235499
21
832.580967
0
LINE
5
8a1
100
AcDbEntity
8
1
100
AcDbLine
6
CONTINUOUS
62
5
10
-96.935499
20
832.554566
11
-97.235499
21
832.554566
0
LINE
5
8a2
100
AcDbEntity
8
1
100
AcDbLine
6
CONTINUOUS
62
5
10
-96.935499
20
832.456366
11
-97.235499
21
832.456366
0
LINE
5
8a3
100
AcDbEntity
8
1
100
AcDbLine
6
CONTINUOUS
62
5
10
-96.935499
20
832.434946
11
-97.235499
21
832.434946
0
LINE
5
8a4
100
AcDbEntity
8
1
100
AcDbLine
6
CONTINUOUS
62
5
10
-96.935499
20
832.336948
11
-97.235499
21
832.336948
0
LINE
5
8a5
100
AcDbEntity
8
1
100
AcDbLine
6
CONTINUOUS
62
5
10
-96.935499
20
832.320566
11
-97.235499
21
832.320566
0
LINE
5
8a6
100
AcDbEntity
8
1
100
AcDbLine
6
CONTINUOUS
62
5
10
-96.935499
20
832.211728
11
-97.235499
21
832.211728
0
LINE
5
8a7
100
AcDbEntity
8
1
100
AcDbLine
6
CONTINUOUS
62
5
10
-96.935499
20
832.223008
11
-97.235499
21
832.223008
0
LINE
5
8a8
100
AcDbEntity
8
1
100
AcDbLine
6
CONTINUOUS
62
5
10
-96.935499
20
832.108729
11
-97.235499
21
832.108729
0
LINE
5
8a9
100
AcDbEntity
8
1
100
AcDbLine
6
CONTINUOUS
62
5
10
-96.935499
20
832.114908
11
-97.235499
21
832.114908
0
LINE
5
8aa
100
AcDbEntity
8
1
100
AcDbLine
6
CONTINUOUS
62
5
10
-96.935499
20
832.012906
11
-97.235499
21
832.012906
0
LINE
5
8ab
100
AcDbEntity
8
1
100
AcDbLine
6
CONTINUOUS
62
5
10
-96.935499
20
831.917286
11
-97.235499
21
831.917286
0
LINE
5
8ac
100
AcDbEntity
8
1
100
AcDbLine
6
CONTINUOUS
62
5
10
-96.935499
20
831.344327
11
-97.235499
21
831.344327
0
LINE
5
8ad
100
AcDbEntity
8
1
100
AcDbLine
6
CONTINUOUS
62
5
10
-96.935499
20
831.348447
11
-97.235499
21
831.348447
0
LINE
5
8ae
100
AcDbEntity
8
1
100
AcDbLine
6
CONTINUOUS
62
5
10
-96.935499
20
831.360767
11
-97.235499
21
831.360767
0
LINE
5
8af
100
AcDbEntity
8
1
100
AcDbLine
6
CONTINUOUS
62
5
10
-96.935499
20
831.381266
11
-97.235499
21
831.381266
0
LINE
5
8b0
100
AcDbEntity
8
1
100
AcDbLine
6
CONTINUOUS
62
5
10
-96.935499
20
831.409888
11
-97.235499
21
831.409888
0
LINE
5
8b1
100
AcDbEntity
8
1
100
AcDbLine
6
CONTINUOUS
62
5
10
-96.935499
20
831.446546
11
-97.235499
21
831.446546
0
LINE
5
8b2
100
AcDbEntity
8
1
100
AcDbLine
6
CONTINUOUS
62
5
10
-96.935499
20
831.491166
11
-97.235499
21
831.491166
0
LINE
5
8b3
100
AcDbEntity
8
1
100
AcDbLine
6
CONTINUOUS
62
5
10
-96.935499
20
831.543586
11
-97.235499
21
831.543586
0
ARC
5
8b4
100
AcDbEntity
8
1
100
AcDbCircle
6
CONTINUOUS
62
5
10
-97.095831
20
832.222349
40
0.820000
100
AcDbArc
50
-126.634307
51
-99.806885
0
LINE
5
8b5
100
AcDbEntity
8
1
100
AcDbLine
6
CONTINUOUS
62
5
10
-96.935499
20
831.746268
11
-97.235499
21
831.746268
0
LINE
5
8b6
100
AcDbEntity
8
1
100
AcDbLine
6
CONTINUOUS
62
5
10
-96.935499
20
831.828327
11
-97.235499
21
831.828327
0
LINE
5
8b7
100
AcDbEntity
8
1
100
AcDbLine
6
CONTINUOUS
62
5
10
-96.935499
20
831.603687
11
-97.235499
21
831.603687
0
LINE
5
8b8
100
AcDbEntity
8
1
100
AcDbLine
6
CONTINUOUS
62
5
10
-96.935499
20
831.671308
11
-97.235499
21
831.671308
0
ARC
5
8b9
100
AcDbEntity
8
1
100
AcDbCircle
6
CONTINUOUS
62
5
10
-97.075171
20
832.222349
40
0.820000
100
AcDbArc
50
-80.193115
51
-20.192602
0
LINE
5
8ba
100
AcDbEntity
8
1
100
AcDbLine
6
CONTINUOUS
62
5
10
-96.935499
20
837.344327
11
-96.935499
21
831.344327
0
LINE
5
8bb
100
AcDbEntity
8
1
100
AcDbLine
6
CONTINUOUS
62
5
10
-97.235499
20
837.344327
11
-97.235499
21
831.344327
0
LINE
5
8bc
100
AcDbEntity
8
1
100
AcDbLine
6
CONTINUOUS
62
5
10
-96.935499
20
832.941486
11
-97.235499
21
832.941486
0
LINE
5
8bd
100
AcDbEntity
8
1
100
AcDbLine
6
CONTINUOUS
62
5
10
-96.935499
20
832.982346
11
-97.235499
21
832.982346
0
LINE
5
8be
100
AcDbEntity
8
1
100
AcDbLine
6
CONTINUOUS
62
5
10
-96.935499
20
833.078626
11
-97.235499
21
833.078626
0
LINE
5
8bf
100
AcDbEntity
8
1
100
AcDbLine
6
CONTINUOUS
62
5
10
-96.935499
20
833.124128
11
-97.235499
21
833.124128
0
LINE
5
8c0
100
AcDbEntity
8
1
100
AcDbLine
6
CONTINUOUS
62
5
10
-96.935499
20
833.219248
11
-97.235499
21
833.219248
0
LINE
5
8c1
100
AcDbEntity
8
1
100
AcDbLine
6
CONTINUOUS
62
5
10
-96.935499
20
833.269227
11
-97.235499
21
833.269227
0
LINE
5
8c2
100
AcDbEntity
8
1
100
AcDbLine
6
CONTINUOUS
62
5
10
-96.935499
20
833.362928
11
-97.235499
21
833.362928
0
LINE
5
8c3
100
AcDbEntity
8
1
100
AcDbLine
6
CONTINUOUS
62
5
10
-96.935499
20
832.808188
11
-97.235499
21
832.808188
0
LINE
5
8c4
100
AcDbEntity
8
1
100
AcDbLine
6
CONTINUOUS
62
5
10
-96.935499
20
832.844327
11
-97.235499
21
832.844327
0
LINE
5
8c5
100
AcDbEntity
8
1
100
AcDbLine
6
CONTINUOUS
62
5
10
-96.935499
20
832.679087
11
-97.235499
21
832.679087
0
LINE
5
8c6
100
AcDbEntity
8
1
100
AcDbLine
6
CONTINUOUS
62
5
10
-96.935499
20
832.710407
11
-97.235499
21
832.710407
0
LINE
5
8c7
100
AcDbEntity
8
1
100
AcDbLine
6
CONTINUOUS
62
5
10
-89.610032
20
756.381458
11
-90.204002
21
756.975428
0
LINE
5
8c8
100
AcDbEntity
8
1
100
AcDbLine
6
CONTINUOUS
62
5
10
-90.204002
20
756.381458
11
-89.610032
21
756.975428
0
CIRCLE
5
8c9
100
AcDbEntity
8
1
100
AcDbCircle
6
CONTINUOUS
62
5
10
-89.907017
20
756.678443
40
0.940000
0
LINE
5
8ca
100
AcDbEntity
8
0
100
AcDbLine
6
DOT2
62
5
10
-97.707017
20
734.078443
11
-97.707017
21
731.278443
0
LINE
5
8cb
100
AcDbEntity
8
1
100
AcDbLine
6
CONTINUOUS
62
5
10
-112.410032
20
735.581458
11
-113.004002
21
736.175428
0
LINE
5
8cc
100
AcDbEntity
8
1
100
AcDbLine
6
CONTINUOUS
62
5
10
-113.004002
20
735.581458
11
-112.410032
21
736.175428
0
CIRCLE
5
8cd
100
AcDbEntity
8
1
100
AcDbCircle
6
CONTINUOUS
62
5
10
-112.707017
20
735.878443
40
0.940000
0
ARC
5
8ce
100
AcDbEntity
8
0
100
AcDbCircle
6
CONTINUOUS
62
5
10
-99.450861
20
731.878443
40
0.200000
100
AcDbArc
50
-165.963755
51
-89.999999
0
LINE
5
8cf
100
AcDbEntity
8
0
100
AcDbLine
6
CONTINUOUS
62
5
10
-99.450861
20
731.678443
11
-95.963172
21
731.678443
0
ARC
5
8d0
100
AcDbEntity
8
0
100
AcDbCircle
6
CONTINUOUS
62
5
10
-95.963172
20
731.878443
40
0.200000
100
AcDbArc
50
-89.999999
51
-14.036243
0
POLYLINE
5
8d1
100
AcDbEntity
8
0
6
CONTINUOUS
62
5
100
AcDb2dPolyline
66
1
10
0.0
20
0.0
30
0.0
70
0
0
VERTEX
5
8d2
100
AcDbEntity
8
0
100
AcDbVertex
100
AcDb2dVertex
62
5
10
-95.769143
20
731.829936
0
VERTEX
5
8d3
100
AcDbEntity
8
0
100
AcDbVertex
100
AcDb2dVertex
62
5
10
-95.307017
20
733.678443
0
VERTEX
5
8d4
100
AcDbEntity
8
0
100
AcDbVertex
100
AcDb2dVertex
62
5
10
-100.107017
20
733.678443
0
VERTEX
5
8d5
100
AcDbEntity
8
0
100
AcDbVertex
100
AcDb2dVertex
62
5
10
-99.644890
20
731.829936
0
SEQEND
5
8d6
100
AcDbEntity
8
0
0
LINE
5
8d7
100
AcDbEntity
8
1
100
AcDbLine
6
DOT2
62
5
10
-168.215501
20
809.344327
11
-168.215501
21
807.744327
0
LINE
5
8d8
100
AcDbEntity
8
0
100
AcDbLine
6
DOT2
62
5
10
-168.215501
20
808.744327
11
-168.215501
21
805.944327
0
CIRCLE
5
8d9
100
AcDbEntity
8
1
100
AcDbCircle
6
DOT2
62
5
10
-174.935501
20
812.344327
40
0.400000
0
CIRCLE
5
8da
100
AcDbEntity
8
1
100
AcDbCircle
6
CONTINUOUS
62
5
10
-174.935501
20
812.344327
40
0.300000
0
ARC
5
8db
100
AcDbEntity
8
0
100
AcDbCircle
6
CONTINUOUS
62
5
10
-166.471657
20
806.544327
40
0.200000
100
AcDbArc
50
-89.999999
51
-14.036243
0
LINE
5
8dc
100
AcDbEntity
8
0
100
AcDbLine
6
CONTINUOUS
62
5
10
-166.471657
20
806.344327
11
-169.959346
21
806.344327
0
ARC
5
8dd
100
AcDbEntity
8
0
100
AcDbCircle
6
CONTINUOUS
62
5
10
-169.959346
20
806.544327
40
0.200000
100
AcDbArc
50
-165.963755
51
-89.999999
0
POLYLINE
5
8de
100
AcDbEntity
8
0
6
CONTINUOUS
62
5
100
AcDb2dPolyline
66
1
10
0.0
20
0.0
30
0.0
70
0
0
VERTEX
5
8df
100
AcDbEntity
8
0
100
AcDbVertex
100
AcDb2dVertex
62
5
10
-170.153374
20
806.495820
0
VERTEX
5
8e0
100
AcDbEntity
8
0
100
AcDbVertex
100
AcDb2dVertex
62
5
10
-170.615501
20
808.344327
0
VERTEX
5
8e1
100
AcDbEntity
8
0
100
AcDbVertex
100
AcDb2dVertex
62
5
10
-165.815501
20
808.344327
0
VERTEX
5
8e2
100
AcDbEntity
8
0
100
AcDbVertex
100
AcDb2dVertex
62
5
10
-166.277628
20
806.495820
0
SEQEND
5
8e3
100
AcDbEntity
8
0
0
LINE
5
8e4
100
AcDbEntity
8
6
100
AcDbLine
6
CONTINUOUS
62
5
10
-182.345439
20
834.194327
11
-182.045439
21
834.494327
0
LINE
5
8e5
100
AcDbEntity
8
6
100
AcDbLine
6
CONTINUOUS
62
5
10
-178.535537
20
834.494327
11
-182.045439
21
834.494327
0
LINE
5
8e6
100
AcDbEntity
8
1
100
AcDbLine
6
DOT2
62
5
10
-181.677269
20
842.344327
11
-177.642373
21
842.344327
0
LINE
5
8e7
100
AcDbEntity
8
1
100
AcDbLine
6
DOT2
62
5
10
-177.945756
20
831.344327
11
-182.744336
21
831.344327
0
LINE
5
8e8
100
AcDbEntity
8
6
100
AcDbLine
6
CONTINUOUS
62
5
10
-182.045439
20
828.194327
11
-182.345439
21
828.494327
0
LINE
5
8e9
100
AcDbEntity
8
6
100
AcDbLine
6
CONTINUOUS
62
5
10
-182.535435
20
822.954410
11
-182.715411
21
822.954414
0
ARC
5
8ea
100
AcDbEntity
8
6
100
AcDbCircle
6
CONTINUOUS
62
5
10
-182.715413
20
822.854464
40
0.100000
100
AcDbArc
50
89.998932
51
179.998981
0
LINE
5
8eb
100
AcDbEntity
8
6
100
AcDbLine
6
CONTINUOUS
62
5
10
-182.334748
20
823.154651
11
-182.534899
21
822.954508
0
LINE
5
8ec
100
AcDbEntity
8
6
100
AcDbLine
6
CONTINUOUS
62
5
10
-182.535567
20
815.734684
11
-182.715543
21
815.734688
0
ARC
5
8ed
100
AcDbEntity
8
6
100
AcDbCircle
6
CONTINUOUS
62
5
10
-182.715542
20
815.834688
40
0.100000
100
AcDbArc
50
179.998981
51
-90.000806
0
LINE
5
8ee
100
AcDbEntity
8
6
100
AcDbLine
6
CONTINUOUS
62
5
10
-182.535079
20
815.734390
11
-182.335083
21
815.534387
0
LINE
5
8ef
100
AcDbEntity
8
1
100
AcDbLine
6
CONTINUOUS
62
5
10
-185.311069
20
818.310379
11
-182.815448
21
818.310378
0
LINE
5
8f0
100
AcDbEntity
8
1
100
AcDbLine
6
CONTINUOUS
62
5
10
-182.511599
20
814.378279
11
-185.311070
21
814.378279
0
LINE
5
8f1
100
AcDbEntity
8
6
100
AcDbLine
6
CONTINUOUS
62
5
10
-182.815365
20
822.854415
11
-182.815494
21
815.834641
0
LINE
5
8f2
100
AcDbEntity
8
6
100
AcDbLine
6
CONTINUOUS
62
5
10
-178.535501
20
828.194327
11
-182.045439
21
828.194327
0
LINE
5
8f3
100
AcDbEntity
8
6
100
AcDbLine
6
CONTINUOUS
62
5
10
-178.535408
20
823.154239
11
-182.335482
21
823.154309
0
LINE
5
8f4
100
AcDbEntity
8
1
100
AcDbLine
6
CONTINUOUS
62
5
10
-180.824311
20
814.378278
11
-179.679906
21
814.378278
0
LINE
5
8f5
100
AcDbEntity
8
6
100
AcDbLine
6
CONTINUOUS
62
5
10
-178.535501
20
815.534513
11
-182.335621
21
815.534583
0
LINE
5
8f6
100
AcDbEntity
8
1
100
AcDbLine
6
DOT2
62
5
10
-183.807179
20
819.344327
11
-177.457179
21
819.344327
0
ARC
5
8f7
100
AcDbEntity
8
1
100
AcDbCircle
6
CONTINUOUS
62
5
10
-194.833466
20
815.295775
40
1.594685
100
AcDbArc
50
-41.112105
51
41.112075
0
ARC
5
8f8
100
AcDbEntity
8
1
100
AcDbCircle
6
CONTINUOUS
62
5
10
-192.430516
20
817.392894
40
1.594685
100
AcDbArc
50
138.887893
51
-138.887923
0
LINE
5
8f9
100
AcDbEntity
8
1
100
AcDbLine
6
CONTINUOUS
62
5
10
-193.446180
20
814.509355
11
-186.097490
21
814.509350
0
LINE
5
8fa
100
AcDbEntity
8
1
100
AcDbLine
6
CONTINUOUS
62
5
10
-186.097489
20
818.179309
11
-193.817802
21
818.179314
0
LINE
5
8fb
100
AcDbEntity
8
1
100
AcDbLine
6
DOT2
62
5
10
-177.762888
20
816.344327
11
-194.335254
21
816.344327
0
LINE
5
8fc
100
AcDbEntity
8
6
100
AcDbLine
6
CONTINUOUS
62
5
10
-182.345439
20
834.194327
11
-182.345439
21
828.494327
0
ARC
5
8fd
100
AcDbEntity
8
1
100
AcDbCircle
6
CONTINUOUS
62
5
10
-177.775501
20
808.784327
40
0.440000
100
AcDbArc
50
179.999998
51
-89.999999
0
LINE
5
8fe
100
AcDbEntity
8
1
100
AcDbLine
6
CONTINUOUS
62
5
10
-178.215501
20
808.784327
11
-178.215501
21
808.944327
0
LINE
5
8ff
100
AcDbEntity
8
1
100
AcDbLine
6
CONTINUOUS
62
5
10
-177.615501
20
808.344327
11
-177.775501
21
808.344327
0
LINE
5
900
100
AcDbEntity
8
1
100
AcDbLine
6
CONTINUOUS
62
5
10
-180.824312
20
813.260327
11
-181.947909
21
813.260327
0
LINE
5
901
100
AcDbEntity
8
1
100
AcDbLine
6
CONTINUOUS
62
5
10
-182.511598
20
815.710909
11
-182.511599
21
812.805439
0
LINE
5
902
100
AcDbEntity
8
1
100
AcDbLine
6
CONTINUOUS
62
5
10
-185.311069
20
819.883218
11
-185.311071
21
812.805440
0
POLYLINE
5
903
100
AcDbEntity
8
1
6
CONTINUOUS
62
5
100
AcDb2dPolyline
66
1
10
0.0
20
0.0
30
0.0
70
0
0
VERTEX
5
904
100
AcDbEntity
8
1
100
AcDbVertex
100
AcDb2dVertex
62
5
10
-181.947908
20
815.534576
0
VERTEX
5
905
100
AcDbEntity
8
1
100
AcDbVertex
100
AcDb2dVertex
62
5
10
-181.947909
20
812.805439
0
VERTEX
5
906
100
AcDbEntity
8
1
100
AcDbVertex
100
AcDb2dVertex
62
5
10
-185.311071
20
812.805440
0
VERTEX
5
907
100
AcDbEntity
8
1
100
AcDbVertex
100
AcDb2dVertex
62
5
10
-186.097491
20
813.591860
0
VERTEX
5
908
100
AcDbEntity
8
1
100
AcDbVertex
100
AcDb2dVertex
62
5
10
-186.097489
20
819.096799
0
VERTEX
5
909
100
AcDbEntity
8
1
100
AcDbVertex
100
AcDb2dVertex
62
5
10
-185.311069
20
819.883218
0
VERTEX
5
90a
100
AcDbEntity
8
1
100
AcDbVertex
100
AcDb2dVertex
62
5
10
-182.815420
20
819.883218
0
SEQEND
5
90b
100
AcDbEntity
8
1
0
POLYLINE
5
90c
100
AcDbEntity
8
1
6
CONTINUOUS
62
5
100
AcDb2dPolyline
66
1
10
0.0
20
0.0
30
0.0
70
1
0
VERTEX
5
90d
100
AcDbEntity
8
1
100
AcDbVertex
100
AcDb2dVertex
62
5
10
-178.535501
20
813.846288
0
VERTEX
5
90e
100
AcDbEntity
8
1
100
AcDbVertex
100
AcDb2dVertex
62
5
10
-178.535502
20
812.805438
0
VERTEX
5
90f
100
AcDbEntity
8
1
100
AcDbVertex
100
AcDb2dVertex
62
5
10
-180.824312
20
812.805439
0
VERTEX
5
910
100
AcDbEntity
8
1
100
AcDbVertex
100
AcDb2dVertex
62
5
10
-180.824312
20
815.534555
0
VERTEX
5
911
100
AcDbEntity
8
1
100
AcDbVertex
100
AcDb2dVertex
62
5
10
-179.059781
20
815.534555
0
VERTEX
5
912
100
AcDbEntity
8
1
100
AcDbVertex
100
AcDb2dVertex
62
5
10
-179.059781
20
813.846288
0
SEQEND
5
913
100
AcDbEntity
8
1
0
POLYLINE
5
914
100
AcDbEntity
8
1
6
CONTINUOUS
62
5
100
AcDb2dPolyline
66
1
10
0.0
20
0.0
30
0.0
70
1
0
VERTEX
5
915
100
AcDbEntity
8
1
100
AcDbVertex
100
AcDb2dVertex
62
5
10
-179.669959
20
815.534555
0
VERTEX
5
916
100
AcDbEntity
8
1
100
AcDbVertex
100
AcDb2dVertex
62
5
10
-179.679907
20
812.805438
0
SEQEND
5
917
100
AcDbEntity
8
1
0
CIRCLE
5
918
100
AcDbEntity
8
1
100
AcDbCircle
6
CONTINUOUS
62
5
10
-153.707017
20
756.678443
40
0.540000
0
CIRCLE
5
919
100
AcDbEntity
8
1
100
AcDbCircle
6
CONTINUOUS
62
5
10
-153.707017
20
756.678443
40
0.300000
0
CIRCLE
5
91a
100
AcDbEntity
8
1
100
AcDbCircle
6
DOT2
62
5
10
-153.707017
20
756.678443
40
0.400000
0
POLYLINE
5
91b
100
AcDbEntity
8
1
6
CONTINUOUS
62
1
100
AcDb2dPolyline
66
1
10
0.0
20
0.0
30
0.0
70
0
0
VERTEX
5
91c
100
AcDbEntity
8
1
100
AcDbVertex
100
AcDb2dVertex
62
1
10
-158.519517
20
772.182193
0
VERTEX
5
91d
100
AcDbEntity
8
1
100
AcDbVertex
100
AcDb2dVertex
62
1
10
-158.550767
20
772.275943
0
VERTEX
5
91e
100
AcDbEntity
8
1
100
AcDbVertex
100
AcDb2dVertex
62
1
10
-158.613267
20
772.338443
0
VERTEX
5
91f
100
AcDbEntity
8
1
100
AcDbVertex
100
AcDb2dVertex
62
1
10
-158.707017
20
772.338443
0
VERTEX
5
920
100
AcDbEntity
8
1
100
AcDbVertex
100
AcDb2dVertex
62
1
10
-158.800767
20
772.244693
0
VERTEX
5
921
100
AcDbEntity
8
1
100
AcDbVertex
100
AcDb2dVertex
62
1
10
-158.832017
20
772.088443
0
VERTEX
5
922
100
AcDbEntity
8
1
100
AcDbVertex
100
AcDb2dVertex
62
1
10
-158.832017
20
771.838443
0
VERTEX
5
923
100
AcDbEntity
8
1
100
AcDbVertex
100
AcDb2dVertex
62
1
10
-158.800767
20
771.682193
0
VERTEX
5
924
100
AcDbEntity
8
1
100
AcDbVertex
100
AcDb2dVertex
62
1
10
-158.707017
20
771.588443
0
VERTEX
5
925
100
AcDbEntity
8
1
100
AcDbVertex
100
AcDb2dVertex
62
1
10
-158.613267
20
771.588443
0
VERTEX
5
926
100
AcDbEntity
8
1
100
AcDbVertex
100
AcDb2dVertex
62
1
10
-158.550767
20
771.650943
0
VERTEX
5
927
100
AcDbEntity
8
1
100
AcDbVertex
100
AcDb2dVertex
62
1
10
-158.488267
20
771.807193
0
SEQEND
5
928
100
AcDbEntity
8
1
0
LINE
5
929
100
AcDbEntity
8
1
100
AcDbLine
6
CONTINUOUS
62
1
10
-159.332017
20
771.963443
11
-159.019517
21
771.963443
0
CIRCLE
5
92a
100
AcDbEntity
8
1
100
AcDbCircle
6
CONTINUOUS
62
5
10
-162.607017
20
770.578443
40
0.630000
0
LINE
5
92b
100
AcDbEntity
8
1
100
AcDbLine
6
CONTINUOUS
62
5
10
-163.052494
20
770.132966
11
-162.161539
21
771.023921
0
LINE
5
92c
100
AcDbEntity
8
1
100
AcDbLine
6
CONTINUOUS
62
5
10
-162.861575
20
770.833002
11
-162.352458
21
770.323885
0
POLYLINE
5
92d
100
AcDbEntity
8
1
6
CONTINUOUS
62
1
100
AcDb2dPolyline
66
1
10
0.0
20
0.0
30
0.0
70
0
0
VERTEX
5
92e
100
AcDbEntity
8
1
100
AcDbVertex
100
AcDb2dVertex
62
1
10
-160.519517
20
772.182193
0
VERTEX
5
92f
100
AcDbEntity
8
1
100
AcDbVertex
100
AcDb2dVertex
62
1
10
-160.582017
20
772.307193
0
VERTEX
5
930
100
AcDbEntity
8
1
100
AcDbVertex
100
AcDb2dVertex
62
1
10
-160.675767
20
772.338443
0
VERTEX
5
931
100
AcDbEntity
8
1
100
AcDbVertex
100
AcDb2dVertex
62
1
10
-160.738267
20
772.338443
0
VERTEX
5
932
100
AcDbEntity
8
1
100
AcDbVertex
100
AcDb2dVertex
62
1
10
-160.800767
20
772.307193
0
VERTEX
5
933
100
AcDbEntity
8
1
100
AcDbVertex
100
AcDb2dVertex
62
1
10
-160.863267
20
772.213443
0
VERTEX
5
934
100
AcDbEntity
8
1
100
AcDbVertex
100
AcDb2dVertex
62
1
10
-160.863267
20
772.119693
0
VERTEX
5
935
100
AcDbEntity
8
1
100
AcDbVertex
100
AcDb2dVertex
62
1
10
-160.800767
20
772.025943
0
VERTEX
5
936
100
AcDbEntity
8
1
100
AcDbVertex
100
AcDb2dVertex
62
1
10
-160.582017
20
771.900943
0
VERTEX
5
937
100
AcDbEntity
8
1
100
AcDbVertex
100
AcDb2dVertex
62
1
10
-160.519517
20
771.807193
0
VERTEX
5
938
100
AcDbEntity
8
1
100
AcDbVertex
100
AcDb2dVertex
62
1
10
-160.519517
20
771.713443
0
VERTEX
5
939
100
AcDbEntity
8
1
100
AcDbVertex
100
AcDb2dVertex
62
1
10
-160.582017
20
771.619693
0
VERTEX
5
93a
100
AcDbEntity
8
1
100
AcDbVertex
100
AcDb2dVertex
62
1
10
-160.675767
20
771.588443
0
VERTEX
5
93b
100
AcDbEntity
8
1
100
AcDbVertex
100
AcDb2dVertex
62
1
10
-160.738267
20
771.588443
0
VERTEX
5
93c
100
AcDbEntity
8
1
100
AcDbVertex
100
AcDb2dVertex
62
1
10
-160.832017
20
771.650943
0
VERTEX
5
93d
100
AcDbEntity
8
1
100
AcDbVertex
100
AcDb2dVertex
62
1
10
-160.863267
20
771.775943
0
SEQEND
5
93e
100
AcDbEntity
8
1
0
POLYLINE
5
93f
100
AcDbEntity
8
1
6
CONTINUOUS
62
1
100
AcDb2dPolyline
66
1
10
0.0
20
0.0
30
0.0
70
0
0
VERTEX
5
940
100
AcDbEntity
8
1
100
AcDbVertex
100
AcDb2dVertex
62
1
10
-159.832017
20
771.588443
0
VERTEX
5
941
100
AcDbEntity
8
1
100
AcDbVertex
100
AcDb2dVertex
62
1
10
-159.832017
20
772.338443
0
VERTEX
5
942
100
AcDbEntity
8
1
100
AcDbVertex
100
AcDb2dVertex
62
1
10
-159.519517
20
771.588443
0
VERTEX
5
943
100
AcDbEntity
8
1
100
AcDbVertex
100
AcDb2dVertex
62
1
10
-159.519517
20
772.338443
0
SEQEND
5
944
100
AcDbEntity
8
1
0
POLYLINE
5
945
100
AcDbEntity
8
1
6
CONTINUOUS
62
1
100
AcDb2dPolyline
66
1
10
0.0
20
0.0
30
0.0
70
0
0
VERTEX
5
946
100
AcDbEntity
8
1
100
AcDbVertex
100
AcDb2dVertex
62
1
10
-160.019517
20
772.338443
0
VERTEX
5
947
100
AcDbEntity
8
1
100
AcDbVertex
100
AcDb2dVertex
62
1
10
-160.332017
20
772.338443
0
VERTEX
5
948
100
AcDbEntity
8
1
100
AcDbVertex
100
AcDb2dVertex
62
1
10
-160.332017
20
771.588443
0
VERTEX
5
949
100
AcDbEntity
8
1
100
AcDbVertex
100
AcDb2dVertex
62
1
10
-159.988267
20
771.588443
0
SEQEND
5
94a
100
AcDbEntity
8
1
0
LINE
5
94b
100
AcDbEntity
8
1
100
AcDbLine
6
CONTINUOUS
62
1
10
-160.332017
20
771.963443
11
-160.050767
21
771.963443
0
POLYLINE
5
94c
100
AcDbEntity
8
1
6
CONTINUOUS
62
1
100
AcDb2dPolyline
66
1
10
0.0
20
0.0
30
0.0
70
0
0
VERTEX
5
94d
100
AcDbEntity
8
1
100
AcDbVertex
100
AcDb2dVertex
62
1
10
-158.519517
20
761.482193
0
VERTEX
5
94e
100
AcDbEntity
8
1
100
AcDbVertex
100
AcDb2dVertex
62
1
10
-158.550767
20
761.575943
0
VERTEX
5
94f
100
AcDbEntity
8
1
100
AcDbVertex
100
AcDb2dVertex
62
1
10
-158.613267
20
761.638443
0
VERTEX
5
950
100
AcDbEntity
8
1
100
AcDbVertex
100
AcDb2dVertex
62
1
10
-158.707017
20
761.638443
0
VERTEX
5
951
100
AcDbEntity
8
1
100
AcDbVertex
100
AcDb2dVertex
62
1
10
-158.800767
20
761.544693
0
VERTEX
5
952
100
AcDbEntity
8
1
100
AcDbVertex
100
AcDb2dVertex
62
1
10
-158.832017
20
761.388443
0
VERTEX
5
953
100
AcDbEntity
8
1
100
AcDbVertex
100
AcDb2dVertex
62
1
10
-158.832017
20
761.138443
0
VERTEX
5
954
100
AcDbEntity
8
1
100
AcDbVertex
100
AcDb2dVertex
62
1
10
-158.800767
20
760.982193
0
VERTEX
5
955
100
AcDbEntity
8
1
100
AcDbVertex
100
AcDb2dVertex
62
1
10
-158.707017
20
760.888443
0
VERTEX
5
956
100
AcDbEntity
8
1
100
AcDbVertex
100
AcDb2dVertex
62
1
10
-158.613267
20
760.888443
0
VERTEX
5
957
100
AcDbEntity
8
1
100
AcDbVertex
100
AcDb2dVertex
62
1
10
-158.550767
20
760.950943
0
VERTEX
5
958
100
AcDbEntity
8
1
100
AcDbVertex
100
AcDb2dVertex
62
1
10
-158.488267
20
761.107193
0
SEQEND
5
959
100
AcDbEntity
8
1
0
LINE
5
95a
100
AcDbEntity
8
1
100
AcDbLine
6
CONTINUOUS
62
1
10
-159.332017
20
761.263443
11
-159.019517
21
761.263443
0
CIRCLE
5
95b
100
AcDbEntity
8
1
100
AcDbCircle
6
CONTINUOUS
62
5
10
-162.643017
20
759.614443
40
0.630000
0
LINE
5
95c
100
AcDbEntity
8
1
100
AcDbLine
6
CONTINUOUS
62
5
10
-163.088494
20
759.168966
11
-162.197539
21
760.059921
0
LINE
5
95d
100
AcDbEntity
8
1
100
AcDbLine
6
CONTINUOUS
62
5
10
-162.897575
20
759.869002
11
-162.388458
21
759.359885
0
POLYLINE
5
95e
100
AcDbEntity
8
1
6
CONTINUOUS
62
1
100
AcDb2dPolyline
66
1
10
0.0
20
0.0
30
0.0
70
0
0
VERTEX
5
95f
100
AcDbEntity
8
1
100
AcDbVertex
100
AcDb2dVertex
62
1
10
-160.519517
20
761.638443
0
VERTEX
5
960
100
AcDbEntity
8
1
100
AcDbVertex
100
AcDb2dVertex
62
1
10
-160.832017
20
761.638443
0
VERTEX
5
961
100
AcDbEntity
8
1
100
AcDbVertex
100
AcDb2dVertex
62
1
10
-160.832017
20
760.888443
0
VERTEX
5
962
100
AcDbEntity
8
1
100
AcDbVertex
100
AcDb2dVertex
62
1
10
-160.488267
20
760.888443
0
SEQEND
5
963
100
AcDbEntity
8
1
0
LINE
5
964
100
AcDbEntity
8
1
100
AcDbLine
6
CONTINUOUS
62
1
10
-160.832017
20
761.263443
11
-160.550767
21
761.263443
0
POLYLINE
5
965
100
AcDbEntity
8
1
6
CONTINUOUS
62
1
100
AcDb2dPolyline
66
1
10
0.0
20
0.0
30
0.0
70
0
0
VERTEX
5
966
100
AcDbEntity
8
1
100
AcDbVertex
100
AcDb2dVertex
62
1
10
-159.519517
20
761.482193
0
VERTEX
5
967
100
AcDbEntity
8
1
100
AcDbVertex
100
AcDb2dVertex
62
1
10
-159.550767
20
761.575943
0
VERTEX
5
968
100
AcDbEntity
8
1
100
AcDbVertex
100
AcDb2dVertex
62
1
10
-159.613267
20
761.638443
0
VERTEX
5
969
100
AcDbEntity
8
1
100
AcDbVertex
100
AcDb2dVertex
62
1
10
-159.707017
20
761.638443
0
VERTEX
5
96a
100
AcDbEntity
8
1
100
AcDbVertex
100
AcDb2dVertex
62
1
10
-159.800767
20
761.544693
0
VERTEX
5
96b
100
AcDbEntity
8
1
100
AcDbVertex
100
AcDb2dVertex
62
1
10
-159.832017
20
761.388443
0
VERTEX
5
96c
100
AcDbEntity
8
1
100
AcDbVertex
100
AcDb2dVertex
62
1
10
-159.832017
20
761.138443
0
VERTEX
5
96d
100
AcDbEntity
8
1
100
AcDbVertex
100
AcDb2dVertex
62
1
10
-159.800767
20
760.982193
0
VERTEX
5
96e
100
AcDbEntity
8
1
100
AcDbVertex
100
AcDb2dVertex
62
1
10
-159.707017
20
760.888443
0
VERTEX
5
96f
100
AcDbEntity
8
1
100
AcDbVertex
100
AcDb2dVertex
62
1
10
-159.613267
20
760.888443
0
VERTEX
5
970
100
AcDbEntity
8
1
100
AcDbVertex
100
AcDb2dVertex
62
1
10
-159.550767
20
760.950943
0
VERTEX
5
971
100
AcDbEntity
8
1
100
AcDbVertex
100
AcDb2dVertex
62
1
10
-159.488267
20
761.107193
0
SEQEND
5
972
100
AcDbEntity
8
1
0
POLYLINE
5
973
100
AcDbEntity
8
1
6
CONTINUOUS
62
1
100
AcDb2dPolyline
66
1
10
0.0
20
0.0
30
0.0
70
0
0
VERTEX
5
974
100
AcDbEntity
8
1
100
AcDbVertex
100
AcDb2dVertex
62
1
10
-160.332017
20
760.888443
0
VERTEX
5
975
100
AcDbEntity
8
1
100
AcDbVertex
100
AcDb2dVertex
62
1
10
-160.332017
20
761.638443
0
VERTEX
5
976
100
AcDbEntity
8
1
100
AcDbVertex
100
AcDb2dVertex
62
1
10
-160.019517
20
760.888443
0
VERTEX
5
977
100
AcDbEntity
8
1
100
AcDbVertex
100
AcDb2dVertex
62
1
10
-160.019517
20
761.638443
0
SEQEND
5
978
100
AcDbEntity
8
1
0
CIRCLE
5
979
100
AcDbEntity
8
1
100
AcDbCircle
6
CONTINUOUS
62
5
10
-162.607017
20
764.778443
40
0.630000
0
LINE
5
97a
100
AcDbEntity
8
1
100
AcDbLine
6
CONTINUOUS
62
5
10
-163.052494
20
764.332966
11
-162.161539
21
765.223921
0
LINE
5
97b
100
AcDbEntity
8
1
100
AcDbLine
6
CONTINUOUS
62
5
10
-162.861575
20
765.033002
11
-162.352458
21
764.523885
0
CIRCLE
5
97c
100
AcDbEntity
8
1
100
AcDbCircle
6
CONTINUOUS
62
5
10
-162.643017
20
753.742443
40
0.630000
0
LINE
5
97d
100
AcDbEntity
8
1
100
AcDbLine
6
CONTINUOUS
62
5
10
-163.088494
20
753.296966
11
-162.197539
21
754.187921
0
LINE
5
97e
100
AcDbEntity
8
1
100
AcDbLine
6
CONTINUOUS
62
5
10
-162.897575
20
753.997002
11
-162.388458
21
753.487885
0
ARC
5
97f
100
AcDbEntity
8
1
100
AcDbCircle
6
CONTINUOUS
62
5
10
-159.707017
20
756.678443
40
2.775000
100
AcDbArc
50
179.999998
51
0.000000
0
LINE
5
980
100
AcDbEntity
8
1
100
AcDbLine
6
CONTINUOUS
62
5
10
-156.932017
20
756.678443
11
-156.932017
21
756.678443
0
ARC
5
981
100
AcDbEntity
8
1
100
AcDbCircle
6
CONTINUOUS
62
5
10
-159.707017
20
756.678443
40
2.775000
100
AcDbArc
50
0.000000
51
179.999998
0
LINE
5
982
100
AcDbEntity
8
1
100
AcDbLine
6
CONTINUOUS
62
5
10
-162.482017
20
756.678443
11
-162.482017
21
756.678443
0
CIRCLE
5
983
100
AcDbEntity
8
1
100
AcDbCircle
6
CONTINUOUS
62
5
10
-156.807017
20
770.578443
40
0.630000
0
LINE
5
984
100
AcDbEntity
8
1
100
AcDbLine
6
CONTINUOUS
62
5
10
-157.252494
20
770.132966
11
-156.361539
21
771.023921
0
LINE
5
985
100
AcDbEntity
8
1
100
AcDbLine
6
CONTINUOUS
62
5
10
-157.061575
20
770.833002
11
-156.552458
21
770.323885
0
CIRCLE
5
986
100
AcDbEntity
8
1
100
AcDbCircle
6
CONTINUOUS
62
5
10
-156.771017
20
759.614443
40
0.630000
0
LINE
5
987
100
AcDbEntity
8
1
100
AcDbLine
6
CONTINUOUS
62
5
10
-157.216494
20
759.168966
11
-156.325539
21
760.059921
0
LINE
5
988
100
AcDbEntity
8
1
100
AcDbLine
6
CONTINUOUS
62
5
10
-157.025575
20
759.869002
11
-156.516458
21
759.359885
0
CIRCLE
5
989
100
AcDbEntity
8
1
100
AcDbCircle
6
CONTINUOUS
62
5
10
-156.807017
20
764.778443
40
0.630000
0
LINE
5
98a
100
AcDbEntity
8
1
100
AcDbLine
6
CONTINUOUS
62
5
10
-157.252494
20
764.332966
11
-156.361539
21
765.223921
0
LINE
5
98b
100
AcDbEntity
8
1
100
AcDbLine
6
CONTINUOUS
62
5
10
-157.061575
20
765.033002
11
-156.552458
21
764.523885
0
CIRCLE
5
98c
100
AcDbEntity
8
1
100
AcDbCircle
6
CONTINUOUS
62
5
10
-156.771017
20
753.742443
40
0.630000
0
LINE
5
98d
100
AcDbEntity
8
1
100
AcDbLine
6
CONTINUOUS
62
5
10
-157.216494
20
753.296966
11
-156.325539
21
754.187921
0
LINE
5
98e
100
AcDbEntity
8
1
100
AcDbLine
6
CONTINUOUS
62
5
10
-157.025575
20
753.997002
11
-156.516458
21
753.487885
0
CIRCLE
5
98f
100
AcDbEntity
8
1
100
AcDbCircle
6
CONTINUOUS
62
5
10
-159.707017
20
756.678443
40
3.175000
0
CIRCLE
5
990
100
AcDbEntity
8
1
100
AcDbCircle
6
CONTINUOUS
62
5
10
-159.707017
20
767.678443
40
3.000000
0
CIRCLE
5
991
100
AcDbEntity
8
1
100
AcDbCircle
6
CONTINUOUS
62
5
10
-159.707017
20
767.678443
40
2.600000
0
CIRCLE
5
992
100
AcDbEntity
8
1
100
AcDbCircle
6
CONTINUOUS
62
5
10
-153.707017
20
744.678443
40
0.540000
0
CIRCLE
5
993
100
AcDbEntity
8
1
100
AcDbCircle
6
DOT2
62
5
10
-153.707017
20
744.678443
40
0.400000
0
CIRCLE
5
994
100
AcDbEntity
8
1
100
AcDbCircle
6
CONTINUOUS
62
5
10
-153.707017
20
744.678443
40
0.300000
0
LINE
5
995
100
AcDbEntity
8
1
100
AcDbLine
6
CONTINUOUS
62
1
10
-159.332017
20
749.963443
11
-159.019517
21
749.963443
0
POLYLINE
5
996
100
AcDbEntity
8
1
6
CONTINUOUS
62
1
100
AcDb2dPolyline
66
1
10
0.0
20
0.0
30
0.0
70
0
0
VERTEX
5
997
100
AcDbEntity
8
1
100
AcDbVertex
100
AcDb2dVertex
62
1
10
-158.519517
20
750.182193
0
VERTEX
5
998
100
AcDbEntity
8
1
100
AcDbVertex
100
AcDb2dVertex
62
1
10
-158.550767
20
750.275943
0
VERTEX
5
999
100
AcDbEntity
8
1
100
AcDbVertex
100
AcDb2dVertex
62
1
10
-158.613267
20
750.338443
0
VERTEX
5
99a
100
AcDbEntity
8
1
100
AcDbVertex
100
AcDb2dVertex
62
1
10
-158.707017
20
750.338443
0
VERTEX
5
99b
100
AcDbEntity
8
1
100
AcDbVertex
100
AcDb2dVertex
62
1
10
-158.800767
20
750.244693
0
VERTEX
5
99c
100
AcDbEntity
8
1
100
AcDbVertex
100
AcDb2dVertex
62
1
10
-158.832017
20
750.088443
0
VERTEX
5
99d
100
AcDbEntity
8
1
100
AcDbVertex
100
AcDb2dVertex
62
1
10
-158.832017
20
749.838443
0
VERTEX
5
99e
100
AcDbEntity
8
1
100
AcDbVertex
100
AcDb2dVertex
62
1
10
-158.800767
20
749.682193
0
VERTEX
5
99f
100
AcDbEntity
8
1
100
AcDbVertex
100
AcDb2dVertex
62
1
10
-158.707017
20
749.588443
0
VERTEX
5
9a0
100
AcDbEntity
8
1
100
AcDbVertex
100
AcDb2dVertex
62
1
10
-158.613267
20
749.588443
0
VERTEX
5
9a1
100
AcDbEntity
8
1
100
AcDbVertex
100
AcDb2dVertex
62
1
10
-158.550767
20
749.650943
0
VERTEX
5
9a2
100
AcDbEntity
8
1
100
AcDbVertex
100
AcDb2dVertex
62
1
10
-158.488267
20
749.807193
0
SEQEND
5
9a3
100
AcDbEntity
8
1
0
POLYLINE
5
9a4
100
AcDbEntity
8
1
6
CONTINUOUS
62
1
100
AcDb2dPolyline
66
1
10
0.0
20
0.0
30
0.0
70
0
0
VERTEX
5
9a5
100
AcDbEntity
8
1
100
AcDbVertex
100
AcDb2dVertex
62
1
10
-160.832017
20
749.588443
0
VERTEX
5
9a6
100
AcDbEntity
8
1
100
AcDbVertex
100
AcDb2dVertex
62
1
10
-160.832017
20
750.338443
0
VERTEX
5
9a7
100
AcDbEntity
8
1
100
AcDbVertex
100
AcDb2dVertex
62
1
10
-160.675767
20
749.588443
0
VERTEX
5
9a8
100
AcDbEntity
8
1
100
AcDbVertex
100
AcDb2dVertex
62
1
10
-160.519517
20
750.338443
0
VERTEX
5
9a9
100
AcDbEntity
8
1
100
AcDbVertex
100
AcDb2dVertex
62
1
10
-160.519517
20
749.588443
0
SEQEND
5
9aa
100
AcDbEntity
8
1
0
LINE
5
9ab
100
AcDbEntity
8
1
100
AcDbLine
6
CONTINUOUS
62
1
10
-159.832017
20
750.338443
11
-159.519517
21
750.338443
0
LINE
5
9ac
100
AcDbEntity
8
1
100
AcDbLine
6
CONTINUOUS
62
1
10
-159.675767
20
750.338443
11
-159.675767
21
749.588443
0
POLYLINE
5
9ad
100
AcDbEntity
8
1
6
CONTINUOUS
62
1
100
AcDb2dPolyline
66
1
10
0.0
20
0.0
30
0.0
70
1
0
VERTEX
5
9ae
100
AcDbEntity
8
1
100
AcDbVertex
100
AcDb2dVertex
62
1
10
-160.207017
20
750.338443
0
VERTEX
5
9af
100
AcDbEntity
8
1
100
AcDbVertex
100
AcDb2dVertex
62
1
10
-160.144517
20
750.338443
0
VERTEX
5
9b0
100
AcDbEntity
8
1
100
AcDbVertex
100
AcDb2dVertex
62
1
10
-160.082017
20
750.307193
0
VERTEX
5
9b1
100
AcDbEntity
8
1
100
AcDbVertex
100
AcDb2dVertex
62
1
10
-160.050767
20
750.275943
0
VERTEX
5
9b2
100
AcDbEntity
8
1
100
AcDbVertex
100
AcDb2dVertex
62
1
10
-160.019517
20
750.150943
0
VERTEX
5
9b3
100
AcDbEntity
8
1
100
AcDbVertex
100
AcDb2dVertex
62
1
10
-160.019517
20
749.775943
0
VERTEX
5
9b4
100
AcDbEntity
8
1
100
AcDbVertex
100
AcDb2dVertex
62
1
10
-160.050767
20
749.650943
0
VERTEX
5
9b5
100
AcDbEntity
8
1
100
AcDbVertex
100
AcDb2dVertex
62
1
10
-160.082017
20
749.619693
0
VERTEX
5
9b6
100
AcDbEntity
8
1
100
AcDbVertex
100
AcDb2dVertex
62
1
10
-160.144517
20
749.588443
0
VERTEX
5
9b7
100
AcDbEntity
8
1
100
AcDbVertex
100
AcDb2dVertex
62
1
10
-160.207017
20
749.588443
0
VERTEX
5
9b8
100
AcDbEntity
8
1
100
AcDbVertex
100
AcDb2dVertex
62
1
10
-160.269517
20
749.619693
0
VERTEX
5
9b9
100
AcDbEntity
8
1
100
AcDbVertex
100
AcDb2dVertex
62
1
10
-160.300767
20
749.650943
0
VERTEX
5
9ba
100
AcDbEntity
8
1
100
AcDbVertex
100
AcDb2dVertex
62
1
10
-160.332017
20
749.775943
0
VERTEX
5
9bb
100
AcDbEntity
8
1
100
AcDbVertex
100
AcDb2dVertex
62
1
10
-160.332017
20
750.150943
0
VERTEX
5
9bc
100
AcDbEntity
8
1
100
AcDbVertex
100
AcDb2dVertex
62
1
10
-160.300767
20
750.275943
0
VERTEX
5
9bd
100
AcDbEntity
8
1
100
AcDbVertex
100
AcDb2dVertex
62
1
10
-160.269517
20
750.307193
0
VERTEX
5
9be
100
AcDbEntity
8
1
100
AcDbVertex
100
AcDb2dVertex
62
1
10
-160.207017
20
750.338443
0
SEQEND
5
9bf
100
AcDbEntity
8
1
0
CIRCLE
5
9c0
100
AcDbEntity
8
1
100
AcDbCircle
6
CONTINUOUS
62
5
10
-163.199017
20
748.170443
40
0.630000
0
LINE
5
9c1
100
AcDbEntity
8
1
100
AcDbLine
6
CONTINUOUS
62
5
10
-163.644494
20
747.724966
11
-162.753539
21
748.615921
0
LINE
5
9c2
100
AcDbEntity
8
1
100
AcDbLine
6
CONTINUOUS
62
5
10
-163.453575
20
748.425002
11
-162.944458
21
747.915885
0
CIRCLE
5
9c3
100
AcDbEntity
8
1
100
AcDbCircle
6
CONTINUOUS
62
5
10
-163.199017
20
741.186443
40
0.630000
0
LINE
5
9c4
100
AcDbEntity
8
1
100
AcDbLine
6
CONTINUOUS
62
5
10
-163.644494
20
740.740966
11
-162.753539
21
741.631921
0
LINE
5
9c5
100
AcDbEntity
8
1
100
AcDbLine
6
CONTINUOUS
62
5
10
-163.453575
20
741.441002
11
-162.944458
21
740.931885
0
LINE
5
9c6
100
AcDbEntity
8
1
100
AcDbLine
6
CONTINUOUS
62
5
10
-173.004002
20
735.581458
11
-172.410032
21
736.175428
0
LINE
5
9c7
100
AcDbEntity
8
1
100
AcDbLine
6
CONTINUOUS
62
5
10
-172.410032
20
735.581458
11
-173.004002
21
736.175428
0
CIRCLE
5
9c8
100
AcDbEntity
8
1
100
AcDbCircle
6
CONTINUOUS
62
5
10
-172.707017
20
735.878443
40
0.940000
0
CIRCLE
5
9c9
100
AcDbEntity
8
1
100
AcDbCircle
6
CONTINUOUS
62
5
10
-156.215017
20
748.170443
40
0.630000
0
LINE
5
9ca
100
AcDbEntity
8
1
100
AcDbLine
6
CONTINUOUS
62
5
10
-156.660494
20
747.724966
11
-155.769539
21
748.615921
0
LINE
5
9cb
100
AcDbEntity
8
1
100
AcDbLine
6
CONTINUOUS
62
5
10
-156.469575
20
748.425002
11
-155.960458
21
747.915885
0
CIRCLE
5
9cc
100
AcDbEntity
8
1
100
AcDbCircle
6
CONTINUOUS
62
5
10
-156.215017
20
741.186443
40
0.630000
0
LINE
5
9cd
100
AcDbEntity
8
1
100
AcDbLine
6
CONTINUOUS
62
5
10
-156.660494
20
740.740966
11
-155.769539
21
741.631921
0
LINE
5
9ce
100
AcDbEntity
8
1
100
AcDbLine
6
CONTINUOUS
62
5
10
-156.469575
20
741.441002
11
-155.960458
21
740.931885
0
ARC
5
9cf
100
AcDbEntity
8
1
100
AcDbCircle
6
CONTINUOUS
62
5
10
-159.707017
20
744.678443
40
3.410000
100
AcDbArc
50
179.999998
51
0.000000
0
LINE
5
9d0
100
AcDbEntity
8
1
100
AcDbLine
6
CONTINUOUS
62
5
10
-156.297017
20
744.678443
11
-156.297017
21
744.678443
0
ARC
5
9d1
100
AcDbEntity
8
1
100
AcDbCircle
6
CONTINUOUS
62
5
10
-159.707017
20
744.678443
40
3.410000
100
AcDbArc
50
0.000000
51
179.999998
0
LINE
5
9d2
100
AcDbEntity
8
1
100
AcDbLine
6
CONTINUOUS
62
5
10
-163.117017
20
744.678443
11
-163.117017
21
744.678443
0
CIRCLE
5
9d3
100
AcDbEntity
8
1
100
AcDbCircle
6
CONTINUOUS
62
5
10
-159.707017
20
744.678443
40
3.810000
0
LINE
5
9d4
100
AcDbEntity
8
1
100
AcDbLine
6
CONTINUOUS
62
5
10
-193.254002
20
759.131458
11
-192.660032
21
759.725428
0
LINE
5
9d5
100
AcDbEntity
8
1
100
AcDbLine
6
CONTINUOUS
62
5
10
-192.660032
20
759.131458
11
-193.254002
21
759.725428
0
CIRCLE
5
9d6
100
AcDbEntity
8
1
100
AcDbCircle
6
CONTINUOUS
62
5
10
-192.957017
20
759.428443
40
0.940000
0
CIRCLE
5
9d7
100
AcDbEntity
8
1
100
AcDbCircle
6
DASHED
62
5
10
-184.707017
20
741.678443
40
0.540000
0
CIRCLE
5
9d8
100
AcDbEntity
8
1
100
AcDbCircle
6
DOT2
62
5
10
-184.707017
20
741.678443
40
0.400000
0
LINE
5
9d9
100
AcDbEntity
8
1
100
AcDbLine
6
CONTINUOUS
62
1
10
-182.187017
20
741.572158
11
-181.227017
21
741.572158
0
CIRCLE
5
9da
100
AcDbEntity
8
1
100
AcDbCircle
6
CONTINUOUS
62
1
10
-181.707017
20
741.678443
40
0.575833
0
LINE
5
9db
100
AcDbEntity
8
1
100
AcDbLine
6
CONTINUOUS
62
1
10
-182.019017
20
741.428158
11
-181.395017
21
741.428158
0
LINE
5
9dc
100
AcDbEntity
8
1
100
AcDbLine
6
CONTINUOUS
62
1
10
-181.707017
20
742.196158
11
-181.707017
21
741.572158
0
LINE
5
9dd
100
AcDbEntity
8
1
100
AcDbLine
6
CONTINUOUS
62
1
10
-181.851017
20
741.284158
11
-181.563017
21
741.284158
0
CIRCLE
5
9de
100
AcDbEntity
8
1
100
AcDbCircle
6
CONTINUOUS
62
5
10
-184.707017
20
741.678443
40
0.300000
0
POLYLINE
5
9df
100
AcDbEntity
8
0
6
CONTINUOUS
62
1
100
AcDb2dPolyline
66
1
10
0.0
20
0.0
30
0.0
70
0
0
VERTEX
5
9e0
100
AcDbEntity
8
0
100
AcDbVertex
100
AcDb2dVertex
62
1
10
-187.555696
20
746.179109
0
VERTEX
5
9e1
100
AcDbEntity
8
0
100
AcDbVertex
100
AcDb2dVertex
62
1
10
-187.505696
20
746.379109
0
VERTEX
5
9e2
100
AcDbEntity
8
0
100
AcDbVertex
100
AcDb2dVertex
62
1
10
-187.405696
20
746.479109
0
VERTEX
5
9e3
100
AcDbEntity
8
0
100
AcDbVertex
100
AcDb2dVertex
62
1
10
-187.255696
20
746.479109
0
VERTEX
5
9e4
100
AcDbEntity
8
0
100
AcDbVertex
100
AcDb2dVertex
62
1
10
-187.155696
20
746.429109
0
VERTEX
5
9e5
100
AcDbEntity
8
0
100
AcDbVertex
100
AcDb2dVertex
62
1
10
-187.105696
20
746.279109
0
VERTEX
5
9e6
100
AcDbEntity
8
0
100
AcDbVertex
100
AcDb2dVertex
62
1
10
-187.105696
20
746.079109
0
VERTEX
5
9e7
100
AcDbEntity
8
0
100
AcDbVertex
100
AcDb2dVertex
62
1
10
-187.155696
20
745.979109
0
VERTEX
5
9e8
100
AcDbEntity
8
0
100
AcDbVertex
100
AcDb2dVertex
62
1
10
-187.255696
20
745.879109
0
VERTEX
5
9e9
100
AcDbEntity
8
0
100
AcDbVertex
100
AcDb2dVertex
62
1
10
-187.405696
20
745.879109
0
SEQEND
5
9ea
100
AcDbEntity
8
0
0
POLYLINE
5
9eb
100
AcDbEntity
8
0
6
CONTINUOUS
62
1
100
AcDb2dPolyline
66
1
10
0.0
20
0.0
30
0.0
70
0
0
VERTEX
5
9ec
100
AcDbEntity
8
0
100
AcDbVertex
100
AcDb2dVertex
62
1
10
-187.255696
20
745.879109
0
VERTEX
5
9ed
100
AcDbEntity
8
0
100
AcDbVertex
100
AcDb2dVertex
62
1
10
-187.105696
20
745.779109
0
VERTEX
5
9ee
100
AcDbEntity
8
0
100
AcDbVertex
100
AcDb2dVertex
62
1
10
-187.055696
20
745.629109
0
VERTEX
5
9ef
100
AcDbEntity
8
0
100
AcDbVertex
100
AcDb2dVertex
62
1
10
-187.055696
20
745.479109
0
VERTEX
5
9f0
100
AcDbEntity
8
0
100
AcDbVertex
100
AcDb2dVertex
62
1
10
-187.105696
20
745.379109
0
VERTEX
5
9f1
100
AcDbEntity
8
0
100
AcDbVertex
100
AcDb2dVertex
62
1
10
-187.255696
20
745.279109
0
VERTEX
5
9f2
100
AcDbEntity
8
0
100
AcDbVertex
100
AcDb2dVertex
62
1
10
-187.405696
20
745.279109
0
VERTEX
5
9f3
100
AcDbEntity
8
0
100
AcDbVertex
100
AcDb2dVertex
62
1
10
-187.505696
20
745.329109
0
VERTEX
5
9f4
100
AcDbEntity
8
0
100
AcDbVertex
100
AcDb2dVertex
62
1
10
-187.605696
20
745.479109
0
SEQEND
5
9f5
100
AcDbEntity
8
0
0
LINE
5
9f6
100
AcDbEntity
8
0
100
AcDbLine
6
CONTINUOUS
62
1
10
-192.355696
20
745.879109
11
-191.855696
21
745.879109
0
LINE
5
9f7
100
AcDbEntity
8
0
100
AcDbLine
6
CONTINUOUS
62
1
10
-190.755696
20
746.479109
11
-190.305696
21
746.479109
0
POLYLINE
5
9f8
100
AcDbEntity
8
0
6
CONTINUOUS
62
1
100
AcDb2dPolyline
66
1
10
0.0
20
0.0
30
0.0
70
0
0
VERTEX
5
9f9
100
AcDbEntity
8
0
100
AcDbVertex
100
AcDb2dVertex
62
1
10
-190.755696
20
746.479109
0
VERTEX
5
9fa
100
AcDbEntity
8
0
100
AcDbVertex
100
AcDb2dVertex
62
1
10
-190.755696
20
745.879109
0
VERTEX
5
9fb
100
AcDbEntity
8
0
100
AcDbVertex
100
AcDb2dVertex
62
1
10
-190.655696
20
745.979109
0
VERTEX
5
9fc
100
AcDbEntity
8
0
100
AcDbVertex
100
AcDb2dVertex
62
1
10
-190.555696
20
746.029109
0
VERTEX
5
9fd
100
AcDbEntity
8
0
100
AcDbVertex
100
AcDb2dVertex
62
1
10
-190.405696
20
746.029109
0
VERTEX
5
9fe
100
AcDbEntity
8
0
100
AcDbVertex
100
AcDb2dVertex
62
1
10
-190.305696
20
745.979109
0
VERTEX
5
9ff
100
AcDbEntity
8
0
100
AcDbVertex
100
AcDb2dVertex
62
1
10
-190.255696
20
745.829109
0
VERTEX
5
a00
100
AcDbEntity
8
0
100
AcDbVertex
100
AcDb2dVertex
62
1
10
-190.255696
20
745.529109
0
VERTEX
5
a01
100
AcDbEntity
8
0
100
AcDbVertex
100
AcDb2dVertex
62
1
10
-190.355696
20
745.379109
0
VERTEX
5
a02
100
AcDbEntity
8
0
100
AcDbVertex
100
AcDb2dVertex
62
1
10
-190.505696
20
745.279109
0
VERTEX
5
a03
100
AcDbEntity
8
0
100
AcDbVertex
100
AcDb2dVertex
62
1
10
-190.755696
20
745.279109
0
SEQEND
5
a04
100
AcDbEntity
8
0
0
POLYLINE
5
a05
100
AcDbEntity
8
0
6
CONTINUOUS
62
1
100
AcDb2dPolyline
66
1
10
0.0
20
0.0
30
0.0
70
0
0
VERTEX
5
a06
100
AcDbEntity
8
0
100
AcDbVertex
100
AcDb2dVertex
62
1
10
-189.155696
20
746.479109
0
VERTEX
5
a07
100
AcDbEntity
8
0
100
AcDbVertex
100
AcDb2dVertex
62
1
10
-188.905696
20
745.279109
0
VERTEX
5
a08
100
AcDbEntity
8
0
100
AcDbVertex
100
AcDb2dVertex
62
1
10
-188.655696
20
746.479109
0
SEQEND
5
a09
100
AcDbEntity
8
0
0
POLYLINE
5
a0a
100
AcDbEntity
8
0
6
CONTINUOUS
62
1
100
AcDb2dPolyline
66
1
10
0.0
20
0.0
30
0.0
70
1
0
VERTEX
5
a0b
100
AcDbEntity
8
0
100
AcDbVertex
100
AcDb2dVertex
62
1
10
-189.755696
20
746.479109
0
VERTEX
5
a0c
100
AcDbEntity
8
0
100
AcDbVertex
100
AcDb2dVertex
62
1
10
-189.655696
20
746.479109
0
VERTEX
5
a0d
100
AcDbEntity
8
0
100
AcDbVertex
100
AcDb2dVertex
62
1
10
-189.605696
20
746.429109
0
VERTEX
5
a0e
100
AcDbEntity
8
0
100
AcDbVertex
100
AcDb2dVertex
62
1
10
-189.505696
20
746.229109
0
VERTEX
5
a0f
100
AcDbEntity
8
0
100
AcDbVertex
100
AcDb2dVertex
62
1
10
-189.455696
20
746.029109
0
VERTEX
5
a10
100
AcDbEntity
8
0
100
AcDbVertex
100
AcDb2dVertex
62
1
10
-189.455696
20
745.729109
0
VERTEX
5
a11
100
AcDbEntity
8
0
100
AcDbVertex
100
AcDb2dVertex
62
1
10
-189.505696
20
745.529109
0
VERTEX
5
a12
100
AcDbEntity
8
0
100
AcDbVertex
100
AcDb2dVertex
62
1
10
-189.605696
20
745.329109
0
VERTEX
5
a13
100
AcDbEntity
8
0
100
AcDbVertex
100
AcDb2dVertex
62
1
10
-189.655696
20
745.279109
0
VERTEX
5
a14
100
AcDbEntity
8
0
100
AcDbVertex
100
AcDb2dVertex
62
1
10
-189.755696
20
745.279109
0
VERTEX
5
a15
100
AcDbEntity
8
0
100
AcDbVertex
100
AcDb2dVertex
62
1
10
-189.805696
20
745.329109
0
VERTEX
5
a16
100
AcDbEntity
8
0
100
AcDbVertex
100
AcDb2dVertex
62
1
10
-189.905696
20
745.529109
0
VERTEX
5
a17
100
AcDbEntity
8
0
100
AcDbVertex
100
AcDb2dVertex
62
1
10
-189.955696
20
745.729109
0
VERTEX
5
a18
100
AcDbEntity
8
0
100
AcDbVertex
100
AcDb2dVertex
62
1
10
-189.955696
20
746.029109
0
VERTEX
5
a19
100
AcDbEntity
8
0
100
AcDbVertex
100
AcDb2dVertex
62
1
10
-189.905696
20
746.229109
0
VERTEX
5
a1a
100
AcDbEntity
8
0
100
AcDbVertex
100
AcDb2dVertex
62
1
10
-189.805696
20
746.429109
0
VERTEX
5
a1b
100
AcDbEntity
8
0
100
AcDbVertex
100
AcDb2dVertex
62
1
10
-189.755696
20
746.479109
0
SEQEND
5
a1c
100
AcDbEntity
8
0
0
POLYLINE
5
a1d
100
AcDbEntity
8
0
6
CONTINUOUS
62
1
100
AcDb2dPolyline
66
1
10
0.0
20
0.0
30
0.0
70
1
0
VERTEX
5
a1e
100
AcDbEntity
8
0
100
AcDbVertex
100
AcDb2dVertex
62
1
10
-192.955696
20
746.479109
0
VERTEX
5
a1f
100
AcDbEntity
8
0
100
AcDbVertex
100
AcDb2dVertex
62
1
10
-192.855696
20
746.479109
0
VERTEX
5
a20
100
AcDbEntity
8
0
100
AcDbVertex
100
AcDb2dVertex
62
1
10
-192.805696
20
746.429109
0
VERTEX
5
a21
100
AcDbEntity
8
0
100
AcDbVertex
100
AcDb2dVertex
62
1
10
-192.705696
20
746.229109
0
VERTEX
5
a22
100
AcDbEntity
8
0
100
AcDbVertex
100
AcDb2dVertex
62
1
10
-192.655696
20
746.029109
0
VERTEX
5
a23
100
AcDbEntity
8
0
100
AcDbVertex
100
AcDb2dVertex
62
1
10
-192.655696
20
745.729109
0
VERTEX
5
a24
100
AcDbEntity
8
0
100
AcDbVertex
100
AcDb2dVertex
62
1
10
-192.705696
20
745.529109
0
VERTEX
5
a25
100
AcDbEntity
8
0
100
AcDbVertex
100
AcDb2dVertex
62
1
10
-192.805696
20
745.329109
0
VERTEX
5
a26
100
AcDbEntity
8
0
100
AcDbVertex
100
AcDb2dVertex
62
1
10
-192.855696
20
745.279109
0
VERTEX
5
a27
100
AcDbEntity
8
0
100
AcDbVertex
100
AcDb2dVertex
62
1
10
-192.955696
20
745.279109
0
VERTEX
5
a28
100
AcDbEntity
8
0
100
AcDbVertex
100
AcDb2dVertex
62
1
10
-193.005696
20
745.329109
0
VERTEX
5
a29
100
AcDbEntity
8
0
100
AcDbVertex
100
AcDb2dVertex
62
1
10
-193.105696
20
745.529109
0
VERTEX
5
a2a
100
AcDbEntity
8
0
100
AcDbVertex
100
AcDb2dVertex
62
1
10
-193.155696
20
745.729109
0
VERTEX
5
a2b
100
AcDbEntity
8
0
100
AcDbVertex
100
AcDb2dVertex
62
1
10
-193.155696
20
746.029109
0
VERTEX
5
a2c
100
AcDbEntity
8
0
100
AcDbVertex
100
AcDb2dVertex
62
1
10
-193.105696
20
746.229109
0
VERTEX
5
a2d
100
AcDbEntity
8
0
100
AcDbVertex
100
AcDb2dVertex
62
1
10
-193.005696
20
746.429109
0
VERTEX
5
a2e
100
AcDbEntity
8
0
100
AcDbVertex
100
AcDb2dVertex
62
1
10
-192.955696
20
746.479109
0
SEQEND
5
a2f
100
AcDbEntity
8
0
0
POLYLINE
5
a30
100
AcDbEntity
8
0
6
CONTINUOUS
62
1
100
AcDb2dPolyline
66
1
10
0.0
20
0.0
30
0.0
70
0
0
VERTEX
5
a31
100
AcDbEntity
8
0
100
AcDbVertex
100
AcDb2dVertex
62
1
10
-191.555696
20
746.129109
0
VERTEX
5
a32
100
AcDbEntity
8
0
100
AcDbVertex
100
AcDb2dVertex
62
1
10
-191.505696
20
746.379109
0
VERTEX
5
a33
100
AcDbEntity
8
0
100
AcDbVertex
100
AcDb2dVertex
62
1
10
-191.355696
20
746.479109
0
VERTEX
5
a34
100
AcDbEntity
8
0
100
AcDbVertex
100
AcDb2dVertex
62
1
10
-191.205696
20
746.479109
0
VERTEX
5
a35
100
AcDbEntity
8
0
100
AcDbVertex
100
AcDb2dVertex
62
1
10
-191.105696
20
746.429109
0
VERTEX
5
a36
100
AcDbEntity
8
0
100
AcDbVertex
100
AcDb2dVertex
62
1
10
-191.055696
20
746.279109
0
VERTEX
5
a37
100
AcDbEntity
8
0
100
AcDbVertex
100
AcDb2dVertex
62
1
10
-191.055696
20
746.129109
0
VERTEX
5
a38
100
AcDbEntity
8
0
100
AcDbVertex
100
AcDb2dVertex
62
1
10
-191.105696
20
745.979109
0
VERTEX
5
a39
100
AcDbEntity
8
0
100
AcDbVertex
100
AcDb2dVertex
62
1
10
-191.555696
20
745.279109
0
VERTEX
5
a3a
100
AcDbEntity
8
0
100
AcDbVertex
100
AcDb2dVertex
62
1
10
-191.055696
20
745.279109
0
VERTEX
5
a3b
100
AcDbEntity
8
0
100
AcDbVertex
100
AcDb2dVertex
62
1
10
-191.055696
20
745.429109
0
SEQEND
5
a3c
100
AcDbEntity
8
0
0
POLYLINE
5
a3d
100
AcDbEntity
8
0
6
CONTINUOUS
62
1
100
AcDb2dPolyline
66
1
10
0.0
20
0.0
30
0.0
70
0
0
VERTEX
5
a3e
100
AcDbEntity
8
0
100
AcDbVertex
100
AcDb2dVertex
62
1
10
-194.655696
20
746.379109
0
VERTEX
5
a3f
100
AcDbEntity
8
0
100
AcDbVertex
100
AcDb2dVertex
62
1
10
-194.505696
20
746.479109
0
VERTEX
5
a40
100
AcDbEntity
8
0
100
AcDbVertex
100
AcDb2dVertex
62
1
10
-194.505696
20
745.279109
0
SEQEND
5
a41
100
AcDbEntity
8
0
0
LINE
5
a42
100
AcDbEntity
8
0
100
AcDbLine
6
CONTINUOUS
62
1
10
-194.605696
20
745.279109
11
-194.405696
21
745.279109
0
POLYLINE
5
a43
100
AcDbEntity
8
0
6
CONTINUOUS
62
1
100
AcDb2dPolyline
66
1
10
0.0
20
0.0
30
0.0
70
1
0
VERTEX
5
a44
100
AcDbEntity
8
0
100
AcDbVertex
100
AcDb2dVertex
62
1
10
-193.755696
20
746.479109
0
VERTEX
5
a45
100
AcDbEntity
8
0
100
AcDbVertex
100
AcDb2dVertex
62
1
10
-193.655696
20
746.479109
0
VERTEX
5
a46
100
AcDbEntity
8
0
100
AcDbVertex
100
AcDb2dVertex
62
1
10
-193.555696
20
746.429109
0
VERTEX
5
a47
100
AcDbEntity
8
0
100
AcDbVertex
100
AcDb2dVertex
62
1
10
-193.505696
20
746.329109
0
VERTEX
5
a48
100
AcDbEntity
8
0
100
AcDbVertex
100
AcDb2dVertex
62
1
10
-193.505696
20
746.129109
0
VERTEX
5
a49
100
AcDbEntity
8
0
100
AcDbVertex
100
AcDb2dVertex
62
1
10
-193.555696
20
746.029109
0
VERTEX
5
a4a
100
AcDbEntity
8
0
100
AcDbVertex
100
AcDb2dVertex
62
1
10
-193.855696
20
745.829109
0
VERTEX
5
a4b
100
AcDbEntity
8
0
100
AcDbVertex
100
AcDb2dVertex
62
1
10
-193.955696
20
745.679109
0
VERTEX
5
a4c
100
AcDbEntity
8
0
100
AcDbVertex
100
AcDb2dVertex
62
1
10
-193.955696
20
745.479109
0
VERTEX
5
a4d
100
AcDbEntity
8
0
100
AcDbVertex
100
AcDb2dVertex
62
1
10
-193.905696
20
745.379109
0
VERTEX
5
a4e
100
AcDbEntity
8
0
100
AcDbVertex
100
AcDb2dVertex
62
1
10
-193.855696
20
745.329109
0
VERTEX
5
a4f
100
AcDbEntity
8
0
100
AcDbVertex
100
AcDb2dVertex
62
1
10
-193.755696
20
745.279109
0
VERTEX
5
a50
100
AcDbEntity
8
0
100
AcDbVertex
100
AcDb2dVertex
62
1
10
-193.655696
20
745.279109
0
VERTEX
5
a51
100
AcDbEntity
8
0
100
AcDbVertex
100
AcDb2dVertex
62
1
10
-193.555696
20
745.329109
0
VERTEX
5
a52
100
AcDbEntity
8
0
100
AcDbVertex
100
AcDb2dVertex
62
1
10
-193.505696
20
745.379109
0
VERTEX
5
a53
100
AcDbEntity
8
0
100
AcDbVertex
100
AcDb2dVertex
62
1
10
-193.455696
20
745.479109
0
VERTEX
5
a54
100
AcDbEntity
8
0
100
AcDbVertex
100
AcDb2dVertex
62
1
10
-193.455696
20
745.679109
0
VERTEX
5
a55
100
AcDbEntity
8
0
100
AcDbVertex
100
AcDb2dVertex
62
1
10
-193.555696
20
745.829109
0
VERTEX
5
a56
100
AcDbEntity
8
0
100
AcDbVertex
100
AcDb2dVertex
62
1
10
-193.855696
20
746.029109
0
VERTEX
5
a57
100
AcDbEntity
8
0
100
AcDbVertex
100
AcDb2dVertex
62
1
10
-193.905696
20
746.129109
0
VERTEX
5
a58
100
AcDbEntity
8
0
100
AcDbVertex
100
AcDb2dVertex
62
1
10
-193.905696
20
746.329109
0
VERTEX
5
a59
100
AcDbEntity
8
0
100
AcDbVertex
100
AcDb2dVertex
62
1
10
-193.855696
20
746.429109
0
VERTEX
5
a5a
100
AcDbEntity
8
0
100
AcDbVertex
100
AcDb2dVertex
62
1
10
-193.755696
20
746.479109
0
SEQEND
5
a5b
100
AcDbEntity
8
0
0
CIRCLE
5
a5c
100
AcDbEntity
8
1
100
AcDbCircle
6
CONTINUOUS
62
5
10
-190.707017
20
741.678443
40
1.781010
0
CIRCLE
5
a5d
100
AcDbEntity
8
1
100
AcDbCircle
6
CONTINUOUS
62
5
10
-190.707017
20
741.678443
40
2.300000
0
POLYLINE
5
a5e
100
AcDbEntity
8
1
6
CONTINUOUS
62
5
100
AcDb2dPolyline
66
1
10
0.0
20
0.0
30
0.0
70
1
0
VERTEX
5
a5f
100
AcDbEntity
8
1
100
AcDbVertex
100
AcDb2dVertex
62
5
10
-187.732388
20
743.395846
0
VERTEX
5
a60
100
AcDbEntity
8
1
100
AcDbVertex
100
AcDb2dVertex
62
5
10
-190.707017
20
745.113248
0
VERTEX
5
a61
100
AcDbEntity
8
1
100
AcDbVertex
100
AcDb2dVertex
62
5
10
-193.681645
20
743.395846
0
VERTEX
5
a62
100
AcDbEntity
8
1
100
AcDbVertex
100
AcDb2dVertex
62
5
10
-193.681645
20
739.961041
0
VERTEX
5
a63
100
AcDbEntity
8
1
100
AcDbVertex
100
AcDb2dVertex
62
5
10
-190.707017
20
738.243638
0
VERTEX
5
a64
100
AcDbEntity
8
1
100
AcDbVertex
100
AcDb2dVertex
62
5
10
-187.732388
20
739.961041
0
SEQEND
5
a65
100
AcDbEntity
8
1
0
POLYLINE
5
a66
100
AcDbEntity
8
0
6
CONTINUOUS
62
1
100
AcDb2dPolyline
66
1
10
0.0
20
0.0
30
0.0
70
0
0
VERTEX
5
a67
100
AcDbEntity
8
0
100
AcDbVertex
100
AcDb2dVertex
62
1
10
-186.855696
20
745.729109
0
VERTEX
5
a68
100
AcDbEntity
8
0
100
AcDbVertex
100
AcDb2dVertex
62
1
10
-186.655696
20
745.929109
0
VERTEX
5
a69
100
AcDbEntity
8
0
100
AcDbVertex
100
AcDb2dVertex
62
1
10
-186.355696
20
745.929109
0
VERTEX
5
a6a
100
AcDbEntity
8
0
100
AcDbVertex
100
AcDb2dVertex
62
1
10
-185.955696
20
745.729109
0
VERTEX
5
a6b
100
AcDbEntity
8
0
100
AcDbVertex
100
AcDb2dVertex
62
1
10
-185.705696
20
745.729109
0
VERTEX
5
a6c
100
AcDbEntity
8
0
100
AcDbVertex
100
AcDb2dVertex
62
1
10
-185.505696
20
745.929109
0
SEQEND
5
a6d
100
AcDbEntity
8
0
0
LINE
5
a6e
100
AcDbEntity
8
0
100
AcDbLine
6
DOT2
62
5
10
-187.707017
20
734.078443
11
-187.707017
21
731.278443
0
LINE
5
a6f
100
AcDbEntity
8
1
100
AcDbLine
6
DOT2
62
1
10
-187.707017
20
733.160440
11
-187.707017
21
734.668565
0
ARC
5
a70
100
AcDbEntity
8
0
100
AcDbCircle
6
CONTINUOUS
62
5
10
-189.450861
20
731.878443
40
0.200000
100
AcDbArc
50
-165.963755
51
-89.999999
0
LINE
5
a71
100
AcDbEntity
8
0
100
AcDbLine
6
CONTINUOUS
62
5
10
-189.450861
20
731.678443
11
-185.963172
21
731.678443
0
ARC
5
a72
100
AcDbEntity
8
0
100
AcDbCircle
6
CONTINUOUS
62
5
10
-185.963172
20
731.878443
40
0.200000
100
AcDbArc
50
-89.999999
51
-14.036243
0
POLYLINE
5
a73
100
AcDbEntity
8
0
6
CONTINUOUS
62
5
100
AcDb2dPolyline
66
1
10
0.0
20
0.0
30
0.0
70
0
0
VERTEX
5
a74
100
AcDbEntity
8
0
100
AcDbVertex
100
AcDb2dVertex
62
5
10
-185.769143
20
731.829936
0
VERTEX
5
a75
100
AcDbEntity
8
0
100
AcDbVertex
100
AcDb2dVertex
62
5
10
-185.307017
20
733.678443
0
VERTEX
5
a76
100
AcDbEntity
8
0
100
AcDbVertex
100
AcDb2dVertex
62
5
10
-190.107017
20
733.678443
0
VERTEX
5
a77
100
AcDbEntity
8
0
100
AcDbVertex
100
AcDb2dVertex
62
5
10
-189.644890
20
731.829936
0
SEQEND
5
a78
100
AcDbEntity
8
0
0
LINE
5
a79
100
AcDbEntity
8
1
100
AcDbLine
6
DOT2
62
1
10
-196.625389
20
735.878443
11
-197.577889
21
735.878443
0
LINE
5
a7a
100
AcDbEntity
8
1
100
AcDbLine
6
CONTINUOUS
62
5
10
-176.160032
20
775.631458
11
-176.754002
21
776.225428
0
LINE
5
a7b
100
AcDbEntity
8
1
100
AcDbLine
6
CONTINUOUS
62
5
10
-176.754002
20
775.631458
11
-176.160032
21
776.225428
0
CIRCLE
5
a7c
100
AcDbEntity
8
1
100
AcDbCircle
6
CONTINUOUS
62
5
10
-176.457017
20
775.928443
40
0.940000
0
CIRCLE
5
a7d
100
AcDbEntity
8
1
100
AcDbCircle
6
CONTINUOUS
62
5
10
-184.707017
20
767.678443
40
9.000000
0
ARC
5
a7e
100
AcDbEntity
8
1
100
AcDbCircle
6
CONTINUOUS
62
5
10
-197.187017
20
733.878443
40
0.200000
100
AcDbArc
50
179.999998
51
-89.999999
0
LINE
5
a7f
100
AcDbEntity
8
1
100
AcDbLine
6
CONTINUOUS
62
5
10
-197.187017
20
733.678443
11
-142.707017
21
733.678443
0
POLYLINE
5
a80
100
AcDbEntity
8
1
6
CONTINUOUS
62
5
100
AcDb2dPolyline
66
1
10
0.0
20
0.0
30
0.0
70
0
0
VERTEX
5
a81
100
AcDbEntity
8
1
100
AcDbVertex
100
AcDb2dVertex
62
5
10
-197.387017
20
756.678443
0
VERTEX
5
a82
100
AcDbEntity
8
1
100
AcDbVertex
100
AcDb2dVertex
62
5
10
-197.387017
20
737.678443
0
VERTEX
5
a83
100
AcDbEntity
8
1
100
AcDbVertex
100
AcDb2dVertex
62
5
10
-196.887017
20
737.678443
0
VERTEX
5
a84
100
AcDbEntity
8
1
100
AcDbVertex
100
AcDb2dVertex
62
5
10
-196.887017
20
736.978443
0
VERTEX
5
a85
100
AcDbEntity
8
1
100
AcDbVertex
100
AcDb2dVertex
62
5
10
-197.387017
20
736.978443
0
VERTEX
5
a86
100
AcDbEntity
8
1
100
AcDbVertex
100
AcDb2dVertex
62
5
10
-197.387017
20
733.878443
0
SEQEND
5
a87
100
AcDbEntity
8
1
0
ARC
5
a88
100
AcDbEntity
8
1
100
AcDbCircle
6
CONTINUOUS
62
5
10
-195.887017
20
779.018443
40
0.100000
100
AcDbArc
50
-89.999999
51
0.000000
0
POLYLINE
5
a89
100
AcDbEntity
8
1
6
CONTINUOUS
62
5
100
AcDb2dPolyline
66
1
10
0.0
20
0.0
30
0.0
70
0
0
VERTEX
5
a8a
100
AcDbEntity
8
1
100
AcDbVertex
100
AcDb2dVertex
62
5
10
-195.887017
20
778.918443
0
VERTEX
5
a8b
100
AcDbEntity
8
1
100
AcDbVertex
100
AcDb2dVertex
62
5
10
-197.387017
20
778.918443
0
VERTEX
5
a8c
100
AcDbEntity
8
1
100
AcDbVertex
100
AcDb2dVertex
62
5
10
-197.387017
20
756.678443
0
SEQEND
5
a8d
100
AcDbEntity
8
1
0
POLYLINE
5
a8e
100
AcDbEntity
8
1
6
CONTINUOUS
62
5
100
AcDb2dPolyline
66
1
10
0.0
20
0.0
30
0.0
70
0
0
VERTEX
5
a8f
100
AcDbEntity
8
1
100
AcDbVertex
100
AcDb2dVertex
62
5
10
-142.707017
20
779.358443
0
VERTEX
5
a90
100
AcDbEntity
8
1
100
AcDbVertex
100
AcDb2dVertex
62
5
10
-195.787017
20
779.358443
0
VERTEX
5
a91
100
AcDbEntity
8
1
100
AcDbVertex
100
AcDb2dVertex
62
5
10
-195.787017
20
779.018443
0
SEQEND
5
a92
100
AcDbEntity
8
1
0
ARC
5
a93
100
AcDbEntity
8
1
100
AcDbCircle
6
CONTINUOUS
62
5
10
-177.715501
20
808.844327
40
0.100000
100
AcDbArc
50
0.000000
51
89.999999
0
POLYLINE
5
a94
100
AcDbEntity
8
1
6
CONTINUOUS
62
5
100
AcDb2dPolyline
66
1
10
0.0
20
0.0
30
0.0
70
0
0
VERTEX
5
a95
100
AcDbEntity
8
1
100
AcDbVertex
100
AcDb2dVertex
62
5
10
-177.715501
20
808.944327
0
VERTEX
5
a96
100
AcDbEntity
8
1
100
AcDbVertex
100
AcDb2dVertex
62
5
10
-178.215501
20
808.944327
0
VERTEX
5
a97
100
AcDbEntity
8
1
100
AcDbVertex
100
AcDb2dVertex
62
5
10
-178.215501
20
831.344327
0
SEQEND
5
a98
100
AcDbEntity
8
1
0
LINE
5
a99
100
AcDbEntity
8
1
100
AcDbLine
6
CONTINUOUS
62
5
10
-98.935501
20
831.344327
11
-98.935501
21
809.144327
0
ARC
5
a9a
100
AcDbEntity
8
1
100
AcDbCircle
6
CONTINUOUS
62
5
10
-99.135501
20
809.144327
40
0.200000
100
AcDbArc
50
-89.999999
51
0.000000
0
LINE
5
a9b
100
AcDbEntity
8
1
100
AcDbLine
6
CONTINUOUS
62
5
10
-99.135501
20
808.944327
11
-99.755501
21
808.944327
0
ARC
5
a9c
100
AcDbEntity
8
1
100
AcDbCircle
6
CONTINUOUS
62
5
10
-99.755501
20
808.844327
40
0.100000
100
AcDbArc
50
89.999999
51
179.999998
0
POLYLINE
5
a9d
100
AcDbEntity
8
1
6
CONTINUOUS
62
5
100
AcDb2dPolyline
66
1
10
0.0
20
0.0
30
0.0
70
0
0
VERTEX
5
a9e
100
AcDbEntity
8
1
100
AcDbVertex
100
AcDb2dVertex
62
5
10
-99.855501
20
808.844327
0
VERTEX
5
a9f
100
AcDbEntity
8
1
100
AcDbVertex
100
AcDb2dVertex
62
5
10
-99.855501
20
808.344327
0
VERTEX
5
aa0
100
AcDbEntity
8
1
100
AcDbVertex
100
AcDb2dVertex
62
5
10
-177.615501
20
808.344327
0
VERTEX
5
aa1
100
AcDbEntity
8
1
100
AcDbVertex
100
AcDb2dVertex
62
5
10
-177.615501
20
808.844327
0
SEQEND
5
aa2
100
AcDbEntity
8
1
0
ARC
5
aa3
100
AcDbEntity
8
1
100
AcDbCircle
6
CONTINUOUS
62
5
10
-87.907017
20
733.878443
40
0.200000
100
AcDbArc
50
-89.999999
51
0.000000
0
LINE
5
aa4
100
AcDbEntity
8
1
100
AcDbLine
6
CONTINUOUS
62
5
10
-87.907017
20
733.678443
11
-142.707017
21
733.678443
0
LINE
5
aa5
100
AcDbEntity
8
1
100
AcDbLine
6
CONTINUOUS
62
5
10
-87.707017
20
756.678443
11
-87.707017
21
733.878443
0
ARC
5
aa6
100
AcDbEntity
8
1
100
AcDbCircle
6
CONTINUOUS
62
5
10
-87.907017
20
779.158443
40
0.200000
100
AcDbArc
50
0.000000
51
89.999999
0
POLYLINE
5
aa7
100
AcDbEntity
8
1
6
CONTINUOUS
62
5
100
AcDb2dPolyline
66
1
10
0.0
20
0.0
30
0.0
70
0
0
VERTEX
5
aa8
100
AcDbEntity
8
1
100
AcDbVertex
100
AcDb2dVertex
62
5
10
-87.907017
20
779.358443
0
VERTEX
5
aa9
100
AcDbEntity
8
1
100
AcDbVertex
100
AcDb2dVertex
62
5
10
-91.007017
20
779.358443
0
VERTEX
5
aaa
100
AcDbEntity
8
1
100
AcDbVertex
100
AcDb2dVertex
62
5
10
-91.007017
20
778.858443
0
VERTEX
5
aab
100
AcDbEntity
8
1
100
AcDbVertex
100
AcDb2dVertex
62
5
10
-91.707017
20
778.858443
0
VERTEX
5
aac
100
AcDbEntity
8
1
100
AcDbVertex
100
AcDb2dVertex
62
5
10
-91.707017
20
779.358443
0
VERTEX
5
aad
100
AcDbEntity
8
1
100
AcDbVertex
100
AcDb2dVertex
62
5
10
-142.707017
20
779.358443
0
SEQEND
5
aae
100
AcDbEntity
8
1
0
LINE
5
aaf
100
AcDbEntity
8
1
100
AcDbLine
6
CONTINUOUS
62
5
10
-87.707017
20
756.678443
11
-87.707017
21
779.158443
0
ARC
5
ab0
100
AcDbEntity
8
1
100
AcDbCircle
6
CONTINUOUS
62
5
10
-197.307017
20
779.278443
40
0.400000
100
AcDbArc
50
89.999999
51
179.999998
0
POLYLINE
5
ab1
100
AcDbEntity
8
1
6
CONTINUOUS
62
5
100
AcDb2dPolyline
66
1
10
0.0
20
0.0
30
0.0
70
0
0
VERTEX
5
ab2
100
AcDbEntity
8
1
100
AcDbVertex
100
AcDb2dVertex
62
5
10
-197.307017
20
779.678443
0
VERTEX
5
ab3
100
AcDbEntity
8
1
100
AcDbVertex
100
AcDb2dVertex
62
5
10
-87.707017
20
779.678443
0
VERTEX
5
ab4
100
AcDbEntity
8
1
100
AcDbVertex
100
AcDb2dVertex
62
5
10
-87.707017
20
779.358443
0
VERTEX
5
ab5
100
AcDbEntity
8
1
100
AcDbVertex
100
AcDb2dVertex
62
5
10
-197.287017
20
779.358443
0
SEQEND
5
ab6
100
AcDbEntity
8
1
0
ARC
5
ab7
100
AcDbEntity
8
1
100
AcDbCircle
6
CONTINUOUS
62
5
10
-197.287017
20
779.258443
40
0.100000
100
AcDbArc
50
89.999999
51
179.999998
0
POLYLINE
5
ab8
100
AcDbEntity
8
1
6
CONTINUOUS
62
5
100
AcDb2dPolyline
66
1
10
0.0
20
0.0
30
0.0
70
0
0
VERTEX
5
ab9
100
AcDbEntity
8
1
100
AcDbVertex
100
AcDb2dVertex
62
5
10
-197.387017
20
779.258443
0
VERTEX
5
aba
100
AcDbEntity
8
1
100
AcDbVertex
100
AcDb2dVertex
62
5
10
-197.387017
20
733.678443
0
VERTEX
5
abb
100
AcDbEntity
8
1
100
AcDbVertex
100
AcDb2dVertex
62
5
10
-197.707017
20
733.678443
0
VERTEX
5
abc
100
AcDbEntity
8
1
100
AcDbVertex
100
AcDb2dVertex
62
5
10
-197.707017
20
779.278443
0
SEQEND
5
abd
100
AcDbEntity
8
1
0
POLYLINE
5
abe
100
AcDbEntity
8
1
6
CONTINUOUS
62
5
100
AcDb2dPolyline
66
1
10
0.0
20
0.0
30
0.0
70
0
0
VERTEX
5
abf
100
AcDbEntity
8
1
100
AcDbVertex
100
AcDb2dVertex
62
5
10
-178.535501
20
839.344327
0
VERTEX
5
ac0
100
AcDbEntity
8
1
100
AcDbVertex
100
AcDb2dVertex
62
5
10
-180.615810
20
839.344327
0
VERTEX
5
ac1
100
AcDbEntity
8
1
100
AcDbVertex
100
AcDb2dVertex
62
5
10
-181.015810
20
839.744327
0
VERTEX
5
ac2
100
AcDbEntity
8
1
100
AcDbVertex
100
AcDb2dVertex
62
5
10
-181.015810
20
844.944327
0
VERTEX
5
ac3
100
AcDbEntity
8
1
100
AcDbVertex
100
AcDb2dVertex
62
5
10
-180.615810
20
845.344327
0
VERTEX
5
ac4
100
AcDbEntity
8
1
100
AcDbVertex
100
AcDb2dVertex
62
5
10
-178.535501
20
845.344327
0
SEQEND
5
ac5
100
AcDbEntity
8
1
0
ARC
5
ac6
100
AcDbEntity
8
1
100
AcDbCircle
6
CONTINUOUS
62
5
10
-177.715501
20
853.524327
40
0.100000
100
AcDbArc
50
-89.999999
51
0.000000
0
POLYLINE
5
ac7
100
AcDbEntity
8
1
6
CONTINUOUS
62
5
100
AcDb2dPolyline
66
1
10
0.0
20
0.0
30
0.0
70
0
0
VERTEX
5
ac8
100
AcDbEntity
8
1
100
AcDbVertex
100
AcDb2dVertex
62
5
10
-177.615501
20
853.524327
0
VERTEX
5
ac9
100
AcDbEntity
8
1
100
AcDbVertex
100
AcDb2dVertex
62
5
10
-177.615501
20
854.024327
0
VERTEX
5
aca
100
AcDbEntity
8
1
100
AcDbVertex
100
AcDb2dVertex
62
5
10
-138.735501
20
854.024327
0
SEQEND
5
acb
100
AcDbEntity
8
1
0
POLYLINE
5
acc
100
AcDbEntity
8
1
6
CONTINUOUS
62
5
100
AcDb2dPolyline
66
1
10
0.0
20
0.0
30
0.0
70
0
0
VERTEX
5
acd
100
AcDbEntity
8
1
100
AcDbVertex
100
AcDb2dVertex
62
5
10
-178.215501
20
831.344327
0
VERTEX
5
ace
100
AcDbEntity
8
1
100
AcDbVertex
100
AcDb2dVertex
62
5
10
-178.215501
20
853.424327
0
VERTEX
5
acf
100
AcDbEntity
8
1
100
AcDbVertex
100
AcDb2dVertex
62
5
10
-177.715501
20
853.424327
0
SEQEND
5
ad0
100
AcDbEntity
8
1
0
POLYLINE
5
ad1
100
AcDbEntity
8
1
6
CONTINUOUS
62
5
100
AcDb2dPolyline
66
1
10
0.0
20
0.0
30
0.0
70
0
0
VERTEX
5
ad2
100
AcDbEntity
8
1
100
AcDbVertex
100
AcDb2dVertex
62
5
10
-178.215501
20
854.344327
0
VERTEX
5
ad3
100
AcDbEntity
8
1
100
AcDbVertex
100
AcDb2dVertex
62
5
10
-178.535501
20
854.344327
0
VERTEX
5
ad4
100
AcDbEntity
8
1
100
AcDbVertex
100
AcDb2dVertex
62
5
10
-178.535501
20
808.344327
0
VERTEX
5
ad5
100
AcDbEntity
8
1
100
AcDbVertex
100
AcDb2dVertex
62
5
10
-178.215501
20
808.344327
0
VERTEX
5
ad6
100
AcDbEntity
8
1
100
AcDbVertex
100
AcDb2dVertex
62
5
10
-178.215501
20
854.024327
0
SEQEND
5
ad7
100
AcDbEntity
8
1
0
ARC
5
ad8
100
AcDbEntity
8
1
100
AcDbCircle
6
CONTINUOUS
62
5
10
-99.135501
20
853.824327
40
0.200000
100
AcDbArc
50
0.000000
51
89.999999
0
LINE
5
ad9
100
AcDbEntity
8
1
100
AcDbLine
6
CONTINUOUS
62
5
10
-98.935501
20
853.824327
11
-98.935501
21
831.344327
0
POLYLINE
5
ada
100
AcDbEntity
8
1
6
CONTINUOUS
62
5
100
AcDb2dPolyline
66
1
10
0.0
20
0.0
30
0.0
70
0
0
VERTEX
5
adb
100
AcDbEntity
8
1
100
AcDbVertex
100
AcDb2dVertex
62
5
10
-138.735501
20
854.024327
0
VERTEX
5
adc
100
AcDbEntity
8
1
100
AcDbVertex
100
AcDb2dVertex
62
5
10
-102.935501
20
854.024327
0
VERTEX
5
add
100
AcDbEntity
8
1
100
AcDbVertex
100
AcDb2dVertex
62
5
10
-102.935501
20
853.424327
0
VERTEX
5
ade
100
AcDbEntity
8
1
100
AcDbVertex
100
AcDb2dVertex
62
5
10
-102.335501
20
853.424327
0
VERTEX
5
adf
100
AcDbEntity
8
1
100
AcDbVertex
100
AcDb2dVertex
62
5
10
-102.335501
20
854.024327
0
VERTEX
5
ae0
100
AcDbEntity
8
1
100
AcDbVertex
100
AcDb2dVertex
62
5
10
-99.135501
20
854.024327
0
SEQEND
5
ae1
100
AcDbEntity
8
1
0
LINE
5
ae2
100
AcDbEntity
8
1
100
AcDbLine
6
DOT2
62
3
10
-95.963172
20
888.361350
11
-70.707017
21
888.361350
0
LINE
5
ae3
100
AcDbEntity
8
1
100
AcDbLine
6
DOT2
62
3
10
-87.707017
20
890.361350
11
-70.707017
21
890.361350
0
POLYLINE
5
ae4
100
AcDbEntity
8
1
6
DOT2
62
3
100
AcDb2dPolyline
66
1
10
0.0
20
0.0
30
0.0
70
0
0
VERTEX
5
ae5
100
AcDbEntity
8
1
100
AcDbVertex
100
AcDb2dVertex
62
3
10
-71.707017
20
879.348852
0
VERTEX
5
ae6
100
AcDbEntity
8
1
100
AcDbVertex
100
AcDb2dVertex
62
3
10
-71.707017
20
888.361350
0
VERTEX
5
ae7
100
AcDbEntity
8
1
100
AcDbVertex
100
AcDb2dVertex
62
3
10
-71.199017
20
885.313350
0
VERTEX
5
ae8
100
AcDbEntity
8
1
100
AcDbVertex
100
AcDb2dVertex
62
3
10
-72.215017
20
885.313350
0
VERTEX
5
ae9
100
AcDbEntity
8
1
100
AcDbVertex
100
AcDb2dVertex
62
3
10
-71.707017
20
888.361350
0
VERTEX
5
aea
100
AcDbEntity
8
1
100
AcDbVertex
100
AcDb2dVertex
62
3
10
-71.453017
20
885.313350
0
VERTEX
5
aeb
100
AcDbEntity
8
1
100
AcDbVertex
100
AcDb2dVertex
62
3
10
-71.961017
20
885.313350
0
VERTEX
5
aec
100
AcDbEntity
8
1
100
AcDbVertex
100
AcDb2dVertex
62
3
10
-71.707017
20
888.361350
0
SEQEND
5
aed
100
AcDbEntity
8
1
0
LINE
5
aee
100
AcDbEntity
8
1
100
AcDbLine
6
DOT2
62
3
10
-71.707017
20
888.361350
11
-71.707017
21
890.361350
0
POLYLINE
5
aef
100
AcDbEntity
8
1
6
DOT2
62
3
100
AcDb2dPolyline
66
1
10
0.0
20
0.0
30
0.0
70
0
0
VERTEX
5
af0
100
AcDbEntity
8
1
100
AcDbVertex
100
AcDb2dVertex
62
3
10
-71.707017
20
895.409350
0
VERTEX
5
af1
100
AcDbEntity
8
1
100
AcDbVertex
100
AcDb2dVertex
62
3
10
-71.707017
20
890.361350
0
VERTEX
5
af2
100
AcDbEntity
8
1
100
AcDbVertex
100
AcDb2dVertex
62
3
10
-72.215017
20
893.409350
0
VERTEX
5
af3
100
AcDbEntity
8
1
100
AcDbVertex
100
AcDb2dVertex
62
3
10
-71.199017
20
893.409350
0
VERTEX
5
af4
100
AcDbEntity
8
1
100
AcDbVertex
100
AcDb2dVertex
62
3
10
-71.707017
20
890.361350
0
VERTEX
5
af5
100
AcDbEntity
8
1
100
AcDbVertex
100
AcDb2dVertex
62
3
10
-71.961017
20
893.409350
0
VERTEX
5
af6
100
AcDbEntity
8
1
100
AcDbVertex
100
AcDb2dVertex
62
3
10
-71.453017
20
893.409350
0
VERTEX
5
af7
100
AcDbEntity
8
1
100
AcDbVertex
100
AcDb2dVertex
62
3
10
-71.707017
20
890.361350
0
SEQEND
5
af8
100
AcDbEntity
8
1
0
TEXT
5
af9
100
AcDbEntity
8
1
62
3
100
AcDbText
10
-72.582517
20
880.343052
40
4.000000
41
0.825
1
10
50
90.000000
7
STANDARD
72
0
100
AcDbText
0
LINE
5
afa
100
AcDbEntity
8
1
100
AcDbLine
6
DOT2
62
3
10
-88.107017
20
936.361350
11
-70.707017
21
936.361350
0
LINE
5
afb
100
AcDbEntity
8
1
100
AcDbLine
6
DOT2
62
3
10
-87.707017
20
890.361350
11
-70.707017
21
890.361350
0
POLYLINE
5
afc
100
AcDbEntity
8
1
6
DOT2
62
3
100
AcDb2dPolyline
66
1
10
0.0
20
0.0
30
0.0
70
0
0
VERTEX
5
afd
100
AcDbEntity
8
1
100
AcDbVertex
100
AcDb2dVertex
62
3
10
-71.707017
20
913.883652
0
VERTEX
5
afe
100
AcDbEntity
8
1
100
AcDbVertex
100
AcDb2dVertex
62
3
10
-71.707017
20
890.361350
0
VERTEX
5
aff
100
AcDbEntity
8
1
100
AcDbVertex
100
AcDb2dVertex
62
3
10
-72.215017
20
893.409350
0
VERTEX
5
b00
100
AcDbEntity
8
1
100
AcDbVertex
100
AcDb2dVertex
62
3
10
-71.199017
20
893.409350
0
VERTEX
5
b01
100
AcDbEntity
8
1
100
AcDbVertex
100
AcDb2dVertex
62
3
10
-71.707017
20
890.361350
0
VERTEX
5
b02
100
AcDbEntity
8
1
100
AcDbVertex
100
AcDb2dVertex
62
3
10
-71.961017
20
893.409350
0
VERTEX
5
b03
100
AcDbEntity
8
1
100
AcDbVertex
100
AcDb2dVertex
62
3
10
-71.453017
20
893.409350
0
VERTEX
5
b04
100
AcDbEntity
8
1
100
AcDbVertex
100
AcDb2dVertex
62
3
10
-71.707017
20
890.361350
0
SEQEND
5
b05
100
AcDbEntity
8
1
0
POLYLINE
5
b06
100
AcDbEntity
8
1
6
DOT2
62
3
100
AcDb2dPolyline
66
1
10
0.0
20
0.0
30
0.0
70
0
0
VERTEX
5
b07
100
AcDbEntity
8
1
100
AcDbVertex
100
AcDb2dVertex
62
3
10
-71.707017
20
913.883652
0
VERTEX
5
b08
100
AcDbEntity
8
1
100
AcDbVertex
100
AcDb2dVertex
62
3
10
-71.707017
20
936.361350
0
VERTEX
5
b09
100
AcDbEntity
8
1
100
AcDbVertex
100
AcDb2dVertex
62
3
10
-71.199017
20
933.313350
0
VERTEX
5
b0a
100
AcDbEntity
8
1
100
AcDbVertex
100
AcDb2dVertex
62
3
10
-72.215017
20
933.313350
0
VERTEX
5
b0b
100
AcDbEntity
8
1
100
AcDbVertex
100
AcDb2dVertex
62
3
10
-71.707017
20
936.361350
0
VERTEX
5
b0c
100
AcDbEntity
8
1
100
AcDbVertex
100
AcDb2dVertex
62
3
10
-71.453017
20
933.313350
0
VERTEX
5
b0d
100
AcDbEntity
8
1
100
AcDbVertex
100
AcDb2dVertex
62
3
10
-71.961017
20
933.313350
0
VERTEX
5
b0e
100
AcDbEntity
8
1
100
AcDbVertex
100
AcDb2dVertex
62
3
10
-71.707017
20
936.361350
0
SEQEND
5
b0f
100
AcDbEntity
8
1
0
TEXT
5
b10
100
AcDbEntity
8
1
62
3
100
AcDbText
10
-72.582517
20
910.497252
40
4.000000
41
0.825
1
230
50
90.000000
7
STANDARD
72
0
100
AcDbText
0
LINE
5
b11
100
AcDbEntity
8
1
100
AcDbLine
6
DOT2
62
3
10
-197.707017
20
936.361350
11
-197.707017
21
953.361350
0
LINE
5
b12
100
AcDbEntity
8
1
100
AcDbLine
6
DOT2
62
3
10
-87.707017
20
935.961350
11
-87.707017
21
953.361350
0
POLYLINE
5
b13
100
AcDbEntity
8
1
6
DOT2
62
3
100
AcDb2dPolyline
66
1
10
0.0
20
0.0
30
0.0
70
0
0
VERTEX
5
b14
100
AcDbEntity
8
1
100
AcDbVertex
100
AcDb2dVertex
62
3
10
-144.003519
20
952.361350
0
VERTEX
5
b15
100
AcDbEntity
8
1
100
AcDbVertex
100
AcDb2dVertex
62
3
10
-197.707017
20
952.361350
0
VERTEX
5
b16
100
AcDbEntity
8
1
100
AcDbVertex
100
AcDb2dVertex
62
3
10
-194.659017
20
952.869350
0
VERTEX
5
b17
100
AcDbEntity
8
1
100
AcDbVertex
100
AcDb2dVertex
62
3
10
-194.659017
20
951.853350
0
VERTEX
5
b18
100
AcDbEntity
8
1
100
AcDbVertex
100
AcDb2dVertex
62
3
10
-197.707017
20
952.361350
0
VERTEX
5
b19
100
AcDbEntity
8
1
100
AcDbVertex
100
AcDb2dVertex
62
3
10
-194.659017
20
952.615350
0
VERTEX
5
b1a
100
AcDbEntity
8
1
100
AcDbVertex
100
AcDb2dVertex
62
3
10
-194.659017
20
952.107350
0
VERTEX
5
b1b
100
AcDbEntity
8
1
100
AcDbVertex
100
AcDb2dVertex
62
3
10
-197.707017
20
952.361350
0
SEQEND
5
b1c
100
AcDbEntity
8
1
0
POLYLINE
5
b1d
100
AcDbEntity
8
1
6
DOT2
62
3
100
AcDb2dPolyline
66
1
10
0.0
20
0.0
30
0.0
70
0
0
VERTEX
5
b1e
100
AcDbEntity
8
1
100
AcDbVertex
100
AcDb2dVertex
62
3
10
-144.003519
20
952.361350
0
VERTEX
5
b1f
100
AcDbEntity
8
1
100
AcDbVertex
100
AcDb2dVertex
62
3
10
-87.707017
20
952.361350
0
VERTEX
5
b20
100
AcDbEntity
8
1
100
AcDbVertex
100
AcDb2dVertex
62
3
10
-90.755017
20
951.853350
0
VERTEX
5
b21
100
AcDbEntity
8
1
100
AcDbVertex
100
AcDb2dVertex
62
3
10
-90.755017
20
952.869350
0
VERTEX
5
b22
100
AcDbEntity
8
1
100
AcDbVertex
100
AcDb2dVertex
62
3
10
-87.707017
20
952.361350
0
VERTEX
5
b23
100
AcDbEntity
8
1
100
AcDbVertex
100
AcDb2dVertex
62
3
10
-90.755017
20
952.107350
0
VERTEX
5
b24
100
AcDbEntity
8
1
100
AcDbVertex
100
AcDb2dVertex
62
3
10
-90.755017
20
952.615350
0
VERTEX
5
b25
100
AcDbEntity
8
1
100
AcDbVertex
100
AcDb2dVertex
62
3
10
-87.707017
20
952.361350
0
SEQEND
5
b26
100
AcDbEntity
8
1
0
TEXT
5
b27
100
AcDbEntity
8
1
62
3
100
AcDbText
10
-147.389919
20
953.236850
40
4.000000
41
0.825
1
550
7
STANDARD
72
0
100
AcDbText
0
LINE
5
b28
100
AcDbEntity
8
1
100
AcDbLine
6
DOT2
62
3
10
-178.535501
20
854.344327
11
-178.535501
21
871.344327
0
LINE
5
b29
100
AcDbEntity
8
1
100
AcDbLine
6
DOT2
62
3
10
-98.935501
20
854.344327
11
-98.935501
21
871.344327
0
POLYLINE
5
b2a
100
AcDbEntity
8
1
6
DOT2
62
3
100
AcDb2dPolyline
66
1
10
0.0
20
0.0
30
0.0
70
0
0
VERTEX
5
b2b
100
AcDbEntity
8
1
100
AcDbVertex
100
AcDb2dVertex
62
3
10
-138.100501
20
870.344327
0
VERTEX
5
b2c
100
AcDbEntity
8
1
100
AcDbVertex
100
AcDb2dVertex
62
3
10
-178.535501
20
870.344327
0
VERTEX
5
b2d
100
AcDbEntity
8
1
100
AcDbVertex
100
AcDb2dVertex
62
3
10
-175.487501
20
870.852327
0
VERTEX
5
b2e
100
AcDbEntity
8
1
100
AcDbVertex
100
AcDb2dVertex
62
3
10
-175.487501
20
869.836327
0
VERTEX
5
b2f
100
AcDbEntity
8
1
100
AcDbVertex
100
AcDb2dVertex
62
3
10
-178.535501
20
870.344327
0
VERTEX
5
b30
100
AcDbEntity
8
1
100
AcDbVertex
100
AcDb2dVertex
62
3
10
-175.487501
20
870.598327
0
VERTEX
5
b31
100
AcDbEntity
8
1
100
AcDbVertex
100
AcDb2dVertex
62
3
10
-175.487501
20
870.090327
0
VERTEX
5
b32
100
AcDbEntity
8
1
100
AcDbVertex
100
AcDb2dVertex
62
3
10
-178.535501
20
870.344327
0
SEQEND
5
b33
100
AcDbEntity
8
1
0
POLYLINE
5
b34
100
AcDbEntity
8
1
6
DOT2
62
3
100
AcDb2dPolyline
66
1
10
0.0
20
0.0
30
0.0
70
0
0
VERTEX
5
b35
100
AcDbEntity
8
1
100
AcDbVertex
100
AcDb2dVertex
62
3
10
-138.100501
20
870.344327
0
VERTEX
5
b36
100
AcDbEntity
8
1
100
AcDbVertex
100
AcDb2dVertex
62
3
10
-98.935501
20
870.344327
0
VERTEX
5
b37
100
AcDbEntity
8
1
100
AcDbVertex
100
AcDb2dVertex
62
3
10
-101.983501
20
869.836327
0
VERTEX
5
b38
100
AcDbEntity
8
1
100
AcDbVertex
100
AcDb2dVertex
62
3
10
-101.983501
20
870.852327
0
VERTEX
5
b39
100
AcDbEntity
8
1
100
AcDbVertex
100
AcDb2dVertex
62
3
10
-98.935501
20
870.344327
0
VERTEX
5
b3a
100
AcDbEntity
8
1
100
AcDbVertex
100
AcDb2dVertex
62
3
10
-101.983501
20
870.090327
0
VERTEX
5
b3b
100
AcDbEntity
8
1
100
AcDbVertex
100
AcDb2dVertex
62
3
10
-101.983501
20
870.598327
0
VERTEX
5
b3c
100
AcDbEntity
8
1
100
AcDbVertex
100
AcDb2dVertex
62
3
10
-98.935501
20
870.344327
0
SEQEND
5
b3d
100
AcDbEntity
8
1
0
TEXT
5
b3e
100
AcDbEntity
8
1
62
3
100
AcDbText
10
-141.486901
20
871.219827
40
4.000000
41
0.825
1
398
7
STANDARD
72
0
100
AcDbText
0
ENDSEC
0
SECTION
2
OBJECTS
0
DICTIONARY
5
b3f
100
AcDbDictionary
3
ACAD_GROUP
350
b40
3
ACAD_MLINESTYLE
350
b41
0
DICTIONARY
5
b40
102
{ACAD_REACTORS
330
b3f
102
}
100
AcDbDictionary
0
DICTIONARY
5
b41
102
{ACAD_REACTORS
330
b3f
102
}
100
AcDbDictionary
3
STANDARD
350
b42
0
MLINESTYLE
5
b42
102
{ACAD_REACTORS
330
b41
102
}
100
AcDbMlineStyle
2
STANDARD
70
0
3

62
0
51
90.0
52
90.0
71
2
49
0.5
62
256
6
BYLAYER
49
-0.5
62
256
6
BYLAYER
0
ENDSEC
0
EOF
